ISO-10303-21;
HEADER;
FILE_DESCRIPTION(('STEP AP214'),'1');
FILE_NAME(' ','  ',('TraceParts'),('TraceParts S.A.'),'XStep 1.0',' ',' ');
FILE_SCHEMA(('automotive_design'));
ENDSEC;
DATA;
#1=MECHANICAL_DESIGN_GEOMETRIC_PRESENTATION_REPRESENTATION(' ',(#10,#11,#12,#13,#14,#15,#16,#17,#18,#19,#20,#21,#22,#23,#24,#25,#26,#27,#28,#29,#30,#31,#32,#33,#34,#35,#36,#37,#38,#39,#40,#41,#42,#43,#44,#45,#46,#47,#48,#49,#50,#51,#52),#6);
#2=PRODUCT_DEFINITION_CONTEXT('',#53,'design');
#3=APPLICATION_PROTOCOL_DEFINITION('INTERNATIONAL STANDARD','automotive_design',1994,#53);
#4=PRODUCT_CATEGORY_RELATIONSHIP('NONE','NONE',#54,#55);
#5=SHAPE_DEFINITION_REPRESENTATION(#56,#57);
#6= (GEOMETRIC_REPRESENTATION_CONTEXT(3)GLOBAL_UNCERTAINTY_ASSIGNED_CONTEXT((#60))GLOBAL_UNIT_ASSIGNED_CONTEXT((#62,#63,#64))REPRESENTATION_CONTEXT('NONE','WORKSPACE'));
#10=STYLED_ITEM('',(#66),#67);
#11=STYLED_ITEM('',(#68),#69);
#12=STYLED_ITEM('',(#70),#71);
#13=STYLED_ITEM('',(#72),#73);
#14=STYLED_ITEM('',(#74),#75);
#15=STYLED_ITEM('',(#76),#77);
#16=STYLED_ITEM('',(#78),#79);
#17=STYLED_ITEM('',(#80),#81);
#18=STYLED_ITEM('',(#82),#83);
#19=STYLED_ITEM('',(#84),#85);
#20=STYLED_ITEM('',(#86),#87);
#21=STYLED_ITEM('',(#88),#89);
#22=STYLED_ITEM('',(#90),#91);
#23=STYLED_ITEM('',(#92),#93);
#24=STYLED_ITEM('',(#94),#95);
#25=STYLED_ITEM('',(#96),#97);
#26=STYLED_ITEM('',(#98),#99);
#27=STYLED_ITEM('',(#100),#101);
#28=STYLED_ITEM('',(#102),#103);
#29=STYLED_ITEM('',(#104),#105);
#30=STYLED_ITEM('',(#106),#107);
#31=STYLED_ITEM('',(#108),#109);
#32=STYLED_ITEM('',(#110),#111);
#33=STYLED_ITEM('',(#112),#113);
#34=STYLED_ITEM('',(#114),#115);
#35=STYLED_ITEM('',(#116),#117);
#36=STYLED_ITEM('',(#118),#119);
#37=STYLED_ITEM('',(#120),#121);
#38=STYLED_ITEM('',(#122),#123);
#39=STYLED_ITEM('',(#124),#125);
#40=STYLED_ITEM('',(#126),#127);
#41=STYLED_ITEM('',(#128),#129);
#42=STYLED_ITEM('',(#130),#131);
#43=STYLED_ITEM('',(#132),#133);
#44=STYLED_ITEM('',(#134),#135);
#45=STYLED_ITEM('',(#136),#137);
#46=STYLED_ITEM('',(#138),#139);
#47=STYLED_ITEM('',(#140),#141);
#48=STYLED_ITEM('',(#142),#143);
#49=STYLED_ITEM('',(#144),#145);
#50=STYLED_ITEM('',(#146),#147);
#51=STYLED_ITEM('',(#148),#149);
#52=STYLED_ITEM('',(#150),#151);
#53=APPLICATION_CONTEXT(' ');
#54=PRODUCT_CATEGORY('part','NONE');
#55=PRODUCT_RELATED_PRODUCT_CATEGORY('detail',' ',(#152));
#56=PRODUCT_DEFINITION_SHAPE('NONE','NONE',#153);
#57=ADVANCED_BREP_SHAPE_REPRESENTATION('1',(#119,#154),#6);
#60=UNCERTAINTY_MEASURE_WITH_UNIT(LENGTH_MEASURE(1.0E-006),#62,'','');
#62= (CONVERSION_BASED_UNIT('MILLIMETRE',#157)LENGTH_UNIT()NAMED_UNIT(#160));
#63= (NAMED_UNIT(#162)PLANE_ANGLE_UNIT()SI_UNIT($,.RADIAN.));
#64= (NAMED_UNIT(#162)SOLID_ANGLE_UNIT()SI_UNIT($,.STERADIAN.));
#66=PRESENTATION_STYLE_ASSIGNMENT((#168));
#67=EDGE_CURVE('',#121,#79,#169,.T.);
#68=PRESENTATION_STYLE_ASSIGNMENT((#170));
#69=ADVANCED_FACE('',(#171),#172,.F.);
#70=PRESENTATION_STYLE_ASSIGNMENT((#173));
#71=EDGE_CURVE('',#149,#137,#174,.T.);
#72=PRESENTATION_STYLE_ASSIGNMENT((#175));
#73=EDGE_CURVE('',#133,#109,#176,.T.);
#74=PRESENTATION_STYLE_ASSIGNMENT((#177));
#75=ADVANCED_FACE('',(#178),#179,.T.);
#76=PRESENTATION_STYLE_ASSIGNMENT((#180));
#77=ADVANCED_FACE('',(#181),#182,.T.);
#78=PRESENTATION_STYLE_ASSIGNMENT((#183));
#79=VERTEX_POINT('',#184);
#80=PRESENTATION_STYLE_ASSIGNMENT((#185));
#81=ADVANCED_FACE('',(#186,#187),#188,.T.);
#82=PRESENTATION_STYLE_ASSIGNMENT((#189));
#83=EDGE_CURVE('',#129,#91,#190,.T.);
#84=PRESENTATION_STYLE_ASSIGNMENT((#191));
#85=VERTEX_POINT('',#192);
#86=PRESENTATION_STYLE_ASSIGNMENT((#193));
#87=EDGE_CURVE('',#85,#133,#194,.T.);
#88=PRESENTATION_STYLE_ASSIGNMENT((#195));
#89=EDGE_CURVE('',#129,#137,#196,.T.);
#90=PRESENTATION_STYLE_ASSIGNMENT((#197));
#91=VERTEX_POINT('',#198);
#92=PRESENTATION_STYLE_ASSIGNMENT((#199));
#93=ADVANCED_FACE('',(#200,#201),#202,.T.);
#94=PRESENTATION_STYLE_ASSIGNMENT((#203));
#95=EDGE_CURVE('',#91,#149,#204,.T.);
#96=PRESENTATION_STYLE_ASSIGNMENT((#205));
#97=EDGE_CURVE('',#91,#121,#206,.T.);
#98=PRESENTATION_STYLE_ASSIGNMENT((#207));
#99=EDGE_CURVE('',#133,#85,#208,.T.);
#100=PRESENTATION_STYLE_ASSIGNMENT((#209));
#101=ADVANCED_FACE('',(#210),#211,.T.);
#102=PRESENTATION_STYLE_ASSIGNMENT((#212));
#103=EDGE_CURVE('',#145,#135,#213,.T.);
#104=PRESENTATION_STYLE_ASSIGNMENT((#214));
#105=EDGE_CURVE('',#109,#107,#215,.T.);
#106=PRESENTATION_STYLE_ASSIGNMENT((#216));
#107=VERTEX_POINT('',#217);
#108=PRESENTATION_STYLE_ASSIGNMENT((#218));
#109=VERTEX_POINT('',#219);
#110=PRESENTATION_STYLE_ASSIGNMENT((#220));
#111=ADVANCED_FACE('',(#221),#222,.T.);
#112=PRESENTATION_STYLE_ASSIGNMENT((#223));
#113=EDGE_CURVE('',#79,#149,#224,.T.);
#114=PRESENTATION_STYLE_ASSIGNMENT((#225));
#115=EDGE_CURVE('',#79,#121,#226,.T.);
#116=PRESENTATION_STYLE_ASSIGNMENT((#227));
#117=EDGE_CURVE('',#137,#129,#228,.T.);
#118=PRESENTATION_STYLE_ASSIGNMENT((#229));
#119=MANIFOLD_SOLID_BREP('1',#230);
#120=PRESENTATION_STYLE_ASSIGNMENT((#231));
#121=VERTEX_POINT('',#232);
#122=PRESENTATION_STYLE_ASSIGNMENT((#233));
#123=EDGE_CURVE('',#109,#135,#234,.T.);
#124=PRESENTATION_STYLE_ASSIGNMENT((#235));
#125=ADVANCED_FACE('',(#236),#237,.F.);
#126=PRESENTATION_STYLE_ASSIGNMENT((#238));
#127=EDGE_CURVE('',#135,#145,#239,.T.);
#128=PRESENTATION_STYLE_ASSIGNMENT((#240));
#129=VERTEX_POINT('',#241);
#130=PRESENTATION_STYLE_ASSIGNMENT((#242));
#131=ADVANCED_FACE('',(#243),#244,.F.);
#132=PRESENTATION_STYLE_ASSIGNMENT((#245));
#133=VERTEX_POINT('',#246);
#134=PRESENTATION_STYLE_ASSIGNMENT((#247));
#135=VERTEX_POINT('',#248);
#136=PRESENTATION_STYLE_ASSIGNMENT((#249));
#137=VERTEX_POINT('',#250);
#138=PRESENTATION_STYLE_ASSIGNMENT((#251));
#139=ADVANCED_FACE('',(#252),#253,.F.);
#140=PRESENTATION_STYLE_ASSIGNMENT((#254));
#141=EDGE_CURVE('',#145,#107,#255,.T.);
#142=PRESENTATION_STYLE_ASSIGNMENT((#256));
#143=EDGE_CURVE('',#107,#109,#257,.T.);
#144=PRESENTATION_STYLE_ASSIGNMENT((#258));
#145=VERTEX_POINT('',#259);
#146=PRESENTATION_STYLE_ASSIGNMENT((#260));
#147=EDGE_CURVE('',#107,#85,#261,.T.);
#148=PRESENTATION_STYLE_ASSIGNMENT((#262));
#149=VERTEX_POINT('',#263);
#150=PRESENTATION_STYLE_ASSIGNMENT((#264));
#151=EDGE_CURVE('',#149,#91,#265,.T.);
#152=PRODUCT('1','1','PART-1-DESC',(#266));
#153=PRODUCT_DEFINITION('NONE','NONE',#267,#2);
#154=AXIS2_PLACEMENT_3D('',#268,#269,#270);
#157=LENGTH_MEASURE_WITH_UNIT(LENGTH_MEASURE(1.0),#271);
#160=DIMENSIONAL_EXPONENTS(1.0,0.0,0.0,0.0,0.0,0.0,0.0);
#162=DIMENSIONAL_EXPONENTS(0.0,0.0,0.0,0.0,0.0,0.0,0.0);
#168=CURVE_STYLE('',#272,POSITIVE_LENGTH_MEASURE(1.0E-006),#273);
#169=CIRCLE('',#274,7.50000000000003);
#170=SURFACE_STYLE_USAGE(.BOTH.,#275);
#171=FACE_OUTER_BOUND('',#276,.T.);
#172=CONICAL_SURFACE('',#277,7.75000000000003,0.785398163397448);
#173=CURVE_STYLE('',#278,POSITIVE_LENGTH_MEASURE(1.0E-006),#279);
#174=LINE('',#280,#281);
#175=CURVE_STYLE('',#282,POSITIVE_LENGTH_MEASURE(1.0E-006),#283);
#176=LINE('',#284,#285);
#177=SURFACE_STYLE_USAGE(.BOTH.,#286);
#178=FACE_OUTER_BOUND('',#287,.T.);
#179=SPHERICAL_SURFACE('',#288,22.0000000000001);
#180=SURFACE_STYLE_USAGE(.BOTH.,#289);
#181=FACE_OUTER_BOUND('',#290,.T.);
#182=CYLINDRICAL_SURFACE('',#291,14.0);
#183=POINT_STYLE(' ',#292,POSITIVE_LENGTH_MEASURE(1.0E-006),#293);
#184=CARTESIAN_POINT('',(7.50000000000006,8.50302139682576E-015,-2.8421709430404E-014));
#185=SURFACE_STYLE_USAGE(.BOTH.,#294);
#186=FACE_OUTER_BOUND('',#295,.T.);
#187=FACE_BOUND('',#296,.T.);
#188=PLANE('',#297);
#189=CURVE_STYLE('',#298,POSITIVE_LENGTH_MEASURE(1.0E-006),#299);
#190=LINE('',#300,#301);
#191=POINT_STYLE(' ',#302,POSITIVE_LENGTH_MEASURE(1.0E-006),#303);
#192=CARTESIAN_POINT('',(14.0000000000001,1.03600473116224E-014,5.0));
#193=CURVE_STYLE('',#304,POSITIVE_LENGTH_MEASURE(1.0E-006),#305);
#194=CIRCLE('',#306,14.0);
#195=CURVE_STYLE('',#307,POSITIVE_LENGTH_MEASURE(1.0E-006),#308);
#196=CIRCLE('',#309,8.00000000000003);
#197=POINT_STYLE(' ',#310,POSITIVE_LENGTH_MEASURE(1.0E-006),#311);
#198=CARTESIAN_POINT('',(-7.5,5.41122926323267E-015,4.5));
#199=SURFACE_STYLE_USAGE(.BOTH.,#312);
#200=FACE_OUTER_BOUND('',#313,.T.);
#201=FACE_BOUND('',#314,.T.);
#202=PLANE('',#315);
#203=CURVE_STYLE('',#316,POSITIVE_LENGTH_MEASURE(1.0E-006),#317);
#204=CIRCLE('',#318,7.50000000000003);
#205=CURVE_STYLE('',#319,POSITIVE_LENGTH_MEASURE(1.0E-006),#320);
#206=LINE('',#321,#322);
#207=CURVE_STYLE('',#323,POSITIVE_LENGTH_MEASURE(1.0E-006),#324);
#208=CIRCLE('',#325,14.0);
#209=SURFACE_STYLE_USAGE(.BOTH.,#326);
#210=FACE_OUTER_BOUND('',#327,.T.);
#211=SPHERICAL_SURFACE('',#328,22.0000000000001);
#212=CURVE_STYLE('',#329,POSITIVE_LENGTH_MEASURE(1.0E-006),#330);
#213=CIRCLE('',#331,7.80076587335926);
#214=CURVE_STYLE('',#332,POSITIVE_LENGTH_MEASURE(1.0E-006),#333);
#215=CIRCLE('',#334,14.0);
#216=POINT_STYLE(' ',#335,POSITIVE_LENGTH_MEASURE(1.0E-006),#336);
#217=CARTESIAN_POINT('',(14.0000000000001,1.07425874818664E-014,3.59999999999997));
#218=POINT_STYLE(' ',#337,POSITIVE_LENGTH_MEASURE(1.0E-006),#338);
#219=CARTESIAN_POINT('',(-13.9999999999999,4.56012784732613E-015,3.59999999999997));
#220=SURFACE_STYLE_USAGE(.BOTH.,#339);
#221=FACE_OUTER_BOUND('',#340,.T.);
#222=CYLINDRICAL_SURFACE('',#341,14.0);
#223=CURVE_STYLE('',#342,POSITIVE_LENGTH_MEASURE(1.0E-006),#343);
#224=LINE('',#344,#345);
#225=CURVE_STYLE('',#346,POSITIVE_LENGTH_MEASURE(1.0E-006),#347);
#226=CIRCLE('',#348,7.50000000000003);
#227=CURVE_STYLE('',#349,POSITIVE_LENGTH_MEASURE(1.0E-006),#350);
#228=CIRCLE('',#351,8.00000000000003);
#229=SURFACE_STYLE_USAGE(.BOTH.,#352);
#230=CLOSED_SHELL('',(#125,#111,#131,#101,#75,#69,#93,#77,#81,#139));
#231=POINT_STYLE(' ',#353,POSITIVE_LENGTH_MEASURE(1.0E-006),#354);
#232=CARTESIAN_POINT('',(-7.5,5.13569283362264E-015,-2.8421709430404E-014));
#233=CURVE_STYLE('',#355,POSITIVE_LENGTH_MEASURE(1.0E-006),#356);
#234=CIRCLE('',#357,22.0000000000001);
#235=SURFACE_STYLE_USAGE(.BOTH.,#358);
#236=FACE_OUTER_BOUND('',#359,.T.);
#237=CYLINDRICAL_SURFACE('',#360,7.50000000000003);
#238=CURVE_STYLE('',#361,POSITIVE_LENGTH_MEASURE(1.0E-006),#362);
#239=CIRCLE('',#363,7.80076587335926);
#240=POINT_STYLE(' ',#364,POSITIVE_LENGTH_MEASURE(1.0E-006),#365);
#241=CARTESIAN_POINT('',(-8.0,5.38061410438711E-015,5.0));
#242=SURFACE_STYLE_USAGE(.BOTH.,#366);
#243=FACE_OUTER_BOUND('',#367,.T.);
#244=CONICAL_SURFACE('',#368,7.75000000000003,0.785398163397448);
#245=POINT_STYLE(' ',#369,POSITIVE_LENGTH_MEASURE(1.0E-006),#370);
#246=CARTESIAN_POINT('',(-14.0,4.64585029209369E-015,5.0));
#247=POINT_STYLE(' ',#371,POSITIVE_LENGTH_MEASURE(1.0E-006),#372);
#248=CARTESIAN_POINT('',(-7.80076587335904,5.09886085366979E-015,-3.90798504668055E-014));
#249=POINT_STYLE(' ',#373,POSITIVE_LENGTH_MEASURE(1.0E-006),#374);
#250=CARTESIAN_POINT('',(8.00000000000006,8.64586954411781E-015,5.0));
#251=SURFACE_STYLE_USAGE(.BOTH.,#375);
#252=FACE_OUTER_BOUND('',#376,.T.);
#253=CYLINDRICAL_SURFACE('',#377,7.50000000000003);
#254=CURVE_STYLE('',#378,POSITIVE_LENGTH_MEASURE(1.0E-006),#379);
#255=CIRCLE('',#380,22.0000000000001);
#256=CURVE_STYLE('',#381,POSITIVE_LENGTH_MEASURE(1.0E-006),#382);
#257=CIRCLE('',#383,14.0);
#258=POINT_STYLE(' ',#384,POSITIVE_LENGTH_MEASURE(1.0E-006),#385);
#259=CARTESIAN_POINT('',(7.80076587335932,9.22426318180309E-015,-1.4210854715202E-014));
#260=CURVE_STYLE('',#386,POSITIVE_LENGTH_MEASURE(1.0E-006),#387);
#261=LINE('',#388,#389);
#262=POINT_STYLE(' ',#390,POSITIVE_LENGTH_MEASURE(1.0E-006),#391);
#263=CARTESIAN_POINT('',(7.50000000000006,8.50302139682576E-015,4.5));
#264=CURVE_STYLE('',#392,POSITIVE_LENGTH_MEASURE(1.0E-006),#393);
#265=CIRCLE('',#394,7.50000000000003);
#266=PRODUCT_CONTEXT('',#53,'mechanical');
#267=PRODUCT_DEFINITION_FORMATION_WITH_SPECIFIED_SOURCE(' ','NONE',#152,.NOT_KNOWN.);
#268=CARTESIAN_POINT('',(0.0,0.0,0.0));
#269=DIRECTION('',(0.0,0.0,1.0));
#270=DIRECTION('',(1.0,0.0,0.0));
#271= (NAMED_UNIT(#160)LENGTH_UNIT()SI_UNIT(.MILLI.,.METRE.));
#272=DRAUGHTING_PRE_DEFINED_CURVE_FONT('continuous');
#273=COLOUR_RGB('',0.509803950786591,0.509803950786591,0.588235318660736);
#274=AXIS2_PLACEMENT_3D('',#396,#397,#398);
#275=SURFACE_SIDE_STYLE('',(#399));
#276=EDGE_LOOP('',(#400,#401,#402,#403));
#277=AXIS2_PLACEMENT_3D('',#404,#405,#406);
#278=DRAUGHTING_PRE_DEFINED_CURVE_FONT('continuous');
#279=COLOUR_RGB('',0.509803950786591,0.509803950786591,0.588235318660736);
#280=CARTESIAN_POINT('',(7.75000000000006,8.57444547047179E-015,4.75));
#281=VECTOR('',#407,1.0);
#282=DRAUGHTING_PRE_DEFINED_CURVE_FONT('continuous');
#283=COLOUR_RGB('',0.509803950786591,0.509803950786591,0.588235318660736);
#284=CARTESIAN_POINT('',(-14.0,2.36055106326763E-015,4.29999999999998));
#285=VECTOR('',#408,1.0);
#286=SURFACE_SIDE_STYLE('',(#409));
#287=EDGE_LOOP('',(#410,#411,#412,#413));
#288=AXIS2_PLACEMENT_3D('',#414,#415,#416);
#289=SURFACE_SIDE_STYLE('',(#417));
#290=EDGE_LOOP('',(#418,#419,#420,#421));
#291=AXIS2_PLACEMENT_3D('',#422,#423,#424);
#292=PRE_DEFINED_MARKER('');
#293=COLOUR_RGB('',0.509803950786591,0.509803950786591,0.588235318660736);
#294=SURFACE_SIDE_STYLE('',(#425));
#295=EDGE_LOOP('',(#426,#427));
#296=EDGE_LOOP('',(#428,#429));
#297=AXIS2_PLACEMENT_3D('',#430,#431,#432);
#298=DRAUGHTING_PRE_DEFINED_CURVE_FONT('continuous');
#299=COLOUR_RGB('',0.509803950786591,0.509803950786591,0.588235318660736);
#300=CARTESIAN_POINT('',(-7.75,4.14615290441825E-015,4.75));
#301=VECTOR('',#433,1.0);
#302=PRE_DEFINED_MARKER('');
#303=COLOUR_RGB('',0.509803950786591,0.509803950786591,0.588235318660736);
#304=DRAUGHTING_PRE_DEFINED_CURVE_FONT('continuous');
#305=COLOUR_RGB('',0.509803950786591,0.509803950786591,0.588235318660736);
#306=AXIS2_PLACEMENT_3D('',#434,#435,#436);
#307=DRAUGHTING_PRE_DEFINED_CURVE_FONT('continuous');
#308=COLOUR_RGB('',0.509803950786591,0.509803950786591,0.588235318660736);
#309=AXIS2_PLACEMENT_3D('',#437,#438,#439);
#310=PRE_DEFINED_MARKER('');
#311=COLOUR_RGB('',0.509803950786591,0.509803950786591,0.588235318660736);
#312=SURFACE_SIDE_STYLE('',(#440));
#313=EDGE_LOOP('',(#441,#442));
#314=EDGE_LOOP('',(#443,#444));
#315=AXIS2_PLACEMENT_3D('',#445,#446,#447);
#316=DRAUGHTING_PRE_DEFINED_CURVE_FONT('continuous');
#317=COLOUR_RGB('',0.509803950786591,0.509803950786591,0.588235318660736);
#318=AXIS2_PLACEMENT_3D('',#448,#449,#450);
#319=DRAUGHTING_PRE_DEFINED_CURVE_FONT('continuous');
#320=COLOUR_RGB('',0.509803950786591,0.509803950786591,0.588235318660736);
#321=CARTESIAN_POINT('',(-7.5,4.21757697806427E-015,2.24999999999999));
#322=VECTOR('',#451,1.0);
#323=DRAUGHTING_PRE_DEFINED_CURVE_FONT('continuous');
#324=COLOUR_RGB('',0.509803950786591,0.509803950786591,0.588235318660736);
#325=AXIS2_PLACEMENT_3D('',#452,#453,#454);
#326=SURFACE_SIDE_STYLE('',(#455));
#327=EDGE_LOOP('',(#456,#457,#458,#459));
#328=AXIS2_PLACEMENT_3D('',#460,#461,#462);
#329=DRAUGHTING_PRE_DEFINED_CURVE_FONT('continuous');
#330=COLOUR_RGB('',0.509803950786591,0.509803950786591,0.588235318660736);
#331=AXIS2_PLACEMENT_3D('',#463,#464,#465);
#332=DRAUGHTING_PRE_DEFINED_CURVE_FONT('continuous');
#333=COLOUR_RGB('',0.509803950786591,0.509803950786591,0.588235318660736);
#334=AXIS2_PLACEMENT_3D('',#466,#467,#468);
#335=PRE_DEFINED_MARKER('');
#336=COLOUR_RGB('',0.509803950786591,0.509803950786591,0.588235318660736);
#337=PRE_DEFINED_MARKER('');
#338=COLOUR_RGB('',0.509803950786591,0.509803950786591,0.588235318660736);
#339=SURFACE_SIDE_STYLE('',(#469));
#340=EDGE_LOOP('',(#470,#471,#472,#473));
#341=AXIS2_PLACEMENT_3D('',#474,#475,#476);
#342=DRAUGHTING_PRE_DEFINED_CURVE_FONT('continuous');
#343=COLOUR_RGB('',0.509803950786591,0.509803950786591,0.588235318660736);
#344=CARTESIAN_POINT('',(7.50000000000006,8.50302139682576E-015,2.24999999999999));
#345=VECTOR('',#477,1.0);
#346=DRAUGHTING_PRE_DEFINED_CURVE_FONT('continuous');
#347=COLOUR_RGB('',0.509803950786591,0.509803950786591,0.588235318660736);
#348=AXIS2_PLACEMENT_3D('',#478,#479,#480);
#349=DRAUGHTING_PRE_DEFINED_CURVE_FONT('continuous');
#350=COLOUR_RGB('',0.509803950786591,0.509803950786591,0.588235318660736);
#351=AXIS2_PLACEMENT_3D('',#481,#482,#483);
#352=SURFACE_SIDE_STYLE('',(#484));
#353=PRE_DEFINED_MARKER('');
#354=COLOUR_RGB('',0.509803950786591,0.509803950786591,0.588235318660736);
#355=DRAUGHTING_PRE_DEFINED_CURVE_FONT('continuous');
#356=COLOUR_RGB('',0.509803950786591,0.509803950786591,0.588235318660736);
#357=AXIS2_PLACEMENT_3D('',#485,#486,#487);
#358=SURFACE_SIDE_STYLE('',(#488));
#359=EDGE_LOOP('',(#489,#490,#491,#492));
#360=AXIS2_PLACEMENT_3D('',#493,#494,#495);
#361=DRAUGHTING_PRE_DEFINED_CURVE_FONT('continuous');
#362=COLOUR_RGB('',0.509803950786591,0.509803950786591,0.588235318660736);
#363=AXIS2_PLACEMENT_3D('',#496,#497,#498);
#364=PRE_DEFINED_MARKER('');
#365=COLOUR_RGB('',0.509803950786591,0.509803950786591,0.588235318660736);
#366=SURFACE_SIDE_STYLE('',(#499));
#367=EDGE_LOOP('',(#500,#501,#502,#503));
#368=AXIS2_PLACEMENT_3D('',#504,#505,#506);
#369=PRE_DEFINED_MARKER('');
#370=COLOUR_RGB('',0.509803950786591,0.509803950786591,0.588235318660736);
#371=PRE_DEFINED_MARKER('');
#372=COLOUR_RGB('',0.509803950786591,0.509803950786591,0.588235318660736);
#373=PRE_DEFINED_MARKER('');
#374=COLOUR_RGB('',0.509803950786591,0.509803950786591,0.588235318660736);
#375=SURFACE_SIDE_STYLE('',(#507));
#376=EDGE_LOOP('',(#508,#509,#510,#511));
#377=AXIS2_PLACEMENT_3D('',#512,#513,#514);
#378=DRAUGHTING_PRE_DEFINED_CURVE_FONT('continuous');
#379=COLOUR_RGB('',0.509803950786591,0.509803950786591,0.588235318660736);
#380=AXIS2_PLACEMENT_3D('',#515,#516,#517);
#381=DRAUGHTING_PRE_DEFINED_CURVE_FONT('continuous');
#382=COLOUR_RGB('',0.509803950786591,0.509803950786591,0.588235318660736);
#383=AXIS2_PLACEMENT_3D('',#518,#519,#520);
#384=PRE_DEFINED_MARKER('');
#385=COLOUR_RGB('',0.509803950786591,0.509803950786591,0.588235318660736);
#386=DRAUGHTING_PRE_DEFINED_CURVE_FONT('continuous');
#387=COLOUR_RGB('',0.509803950786591,0.509803950786591,0.588235318660736);
#388=CARTESIAN_POINT('',(14.0000000000001,1.03600473116224E-014,4.29999999999998));
#389=VECTOR('',#521,1.0);
#390=PRE_DEFINED_MARKER('');
#391=COLOUR_RGB('',0.509803950786591,0.509803950786591,0.588235318660736);
#392=DRAUGHTING_PRE_DEFINED_CURVE_FONT('continuous');
#393=COLOUR_RGB('',0.509803950786591,0.509803950786591,0.588235318660736);
#394=AXIS2_PLACEMENT_3D('',#522,#523,#524);
#396=CARTESIAN_POINT('',(2.8421709430404E-014,6.36029918744502E-015,-2.8421709430404E-014));
#397=DIRECTION('',(-0.0,0.0,-1.0));
#398=DIRECTION('',(-1.0,-1.63235659201861E-016,0.0));
#399=SURFACE_STYLE_FILL_AREA(#525);
#400=ORIENTED_EDGE('',*,*,#83,.T.);
#401=ORIENTED_EDGE('',*,*,#95,.T.);
#402=ORIENTED_EDGE('',*,*,#71,.T.);
#403=ORIENTED_EDGE('',*,*,#89,.F.);
#404=CARTESIAN_POINT('',(2.8421709430404E-014,6.36029918744502E-015,4.75));
#405=DIRECTION('',(0.0,-0.0,1.0));
#406=DIRECTION('',(-1.0,-1.63235659201861E-016,0.0));
#407=DIRECTION('',(0.707106781186548,2.02017787260286E-016,0.707106781186548));
#408=DIRECTION('',(0.0,0.0,-1.0));
#409=SURFACE_STYLE_FILL_AREA(#526);
#410=ORIENTED_EDGE('',*,*,#141,.T.);
#411=ORIENTED_EDGE('',*,*,#105,.F.);
#412=ORIENTED_EDGE('',*,*,#123,.T.);
#413=ORIENTED_EDGE('',*,*,#103,.F.);
#414=CARTESIAN_POINT('',(6.12843109593086E-014,7.31368969116378E-015,20.5705627484772));
#415=DIRECTION('',(0.0,0.0,-1.0));
#416=DIRECTION('',(1.0,1.22460635382238E-016,0.0));
#417=SURFACE_STYLE_FILL_AREA(#527);
#418=ORIENTED_EDGE('',*,*,#73,.T.);
#419=ORIENTED_EDGE('',*,*,#105,.T.);
#420=ORIENTED_EDGE('',*,*,#147,.T.);
#421=ORIENTED_EDGE('',*,*,#87,.T.);
#422=CARTESIAN_POINT('',(2.8421709430404E-014,6.36029918744502E-015,2.5));
#423=DIRECTION('',(0.0,-0.0,1.0));
#424=DIRECTION('',(-1.0,-1.63235659201861E-016,0.0));
#425=SURFACE_STYLE_FILL_AREA(#528);
#426=ORIENTED_EDGE('',*,*,#127,.T.);
#427=ORIENTED_EDGE('',*,*,#103,.T.);
#428=ORIENTED_EDGE('',*,*,#67,.F.);
#429=ORIENTED_EDGE('',*,*,#115,.F.);
#430=CARTESIAN_POINT('',(-10.75,4.73769576863036E-015,-1.4210854715202E-014));
#431=DIRECTION('',(0.0,0.0,-1.0));
#432=DIRECTION('',(1.0,1.22460635382238E-016,0.0));
#433=DIRECTION('',(0.707106781186548,2.02017787260286E-016,-0.707106781186548));
#434=CARTESIAN_POINT('',(2.8421709430404E-014,6.36029918744502E-015,5.0));
#435=DIRECTION('',(-0.0,0.0,-1.0));
#436=DIRECTION('',(-1.0,-1.63235659201861E-016,0.0));
#437=CARTESIAN_POINT('',(2.8421709430404E-014,6.36029918744502E-015,5.0));
#438=DIRECTION('',(-0.0,0.0,-1.0));
#439=DIRECTION('',(-1.0,-1.63235659201861E-016,0.0));
#440=SURFACE_STYLE_FILL_AREA(#529);
#441=ORIENTED_EDGE('',*,*,#99,.F.);
#442=ORIENTED_EDGE('',*,*,#87,.F.);
#443=ORIENTED_EDGE('',*,*,#89,.T.);
#444=ORIENTED_EDGE('',*,*,#117,.T.);
#445=CARTESIAN_POINT('',(-11.0,5.0132321982404E-015,5.0));
#446=DIRECTION('',(0.0,0.0,1.0));
#447=DIRECTION('',(-1.0,-1.22460635382238E-016,0.0));
#448=CARTESIAN_POINT('',(2.8421709430404E-014,6.36029918744502E-015,4.5));
#449=DIRECTION('',(-0.0,0.0,-1.0));
#450=DIRECTION('',(-1.0,-1.63235659201861E-016,0.0));
#451=DIRECTION('',(0.0,0.0,-1.0));
#452=CARTESIAN_POINT('',(2.8421709430404E-014,6.36029918744502E-015,5.0));
#453=DIRECTION('',(-0.0,0.0,-1.0));
#454=DIRECTION('',(-1.0,-1.63235659201861E-016,0.0));
#455=SURFACE_STYLE_FILL_AREA(#530);
#456=ORIENTED_EDGE('',*,*,#141,.F.);
#457=ORIENTED_EDGE('',*,*,#127,.F.);
#458=ORIENTED_EDGE('',*,*,#123,.F.);
#459=ORIENTED_EDGE('',*,*,#143,.F.);
#460=CARTESIAN_POINT('',(6.12843109593086E-014,7.31368969116378E-015,20.5705627484772));
#461=DIRECTION('',(0.0,0.0,-1.0));
#462=DIRECTION('',(1.0,1.22460635382238E-016,0.0));
#463=CARTESIAN_POINT('',(6.12843109593086E-014,7.31368969116378E-015,-1.4210854715202E-014));
#464=DIRECTION('',(0.0,0.0,-1.0));
#465=DIRECTION('',(0.0,-1.0,0.0));
#466=CARTESIAN_POINT('',(2.8421709430404E-014,6.36029918744502E-015,3.59999999999997));
#467=DIRECTION('',(0.0,0.0,1.0));
#468=DIRECTION('',(-1.0,-1.63235659201861E-016,0.0));
#469=SURFACE_STYLE_FILL_AREA(#531);
#470=ORIENTED_EDGE('',*,*,#73,.F.);
#471=ORIENTED_EDGE('',*,*,#99,.T.);
#472=ORIENTED_EDGE('',*,*,#147,.F.);
#473=ORIENTED_EDGE('',*,*,#143,.T.);
#474=CARTESIAN_POINT('',(2.8421709430404E-014,6.36029918744502E-015,2.5));
#475=DIRECTION('',(0.0,-0.0,1.0));
#476=DIRECTION('',(-1.0,-1.63235659201861E-016,0.0));
#477=DIRECTION('',(0.0,0.0,1.0));
#478=CARTESIAN_POINT('',(2.8421709430404E-014,6.36029918744502E-015,-2.8421709430404E-014));
#479=DIRECTION('',(-0.0,0.0,-1.0));
#480=DIRECTION('',(-1.0,-1.63235659201861E-016,0.0));
#481=CARTESIAN_POINT('',(2.8421709430404E-014,6.36029918744502E-015,5.0));
#482=DIRECTION('',(-0.0,0.0,-1.0));
#483=DIRECTION('',(-1.0,-1.63235659201861E-016,0.0));
#484=SURFACE_STYLE_FILL_AREA(#532);
#485=CARTESIAN_POINT('',(6.12843109593086E-014,7.31368969116378E-015,20.5705627484772));
#486=DIRECTION('',(2.44921270764475E-016,-1.0,0.0));
#487=DIRECTION('',(-0.0,0.0,1.0));
#488=SURFACE_STYLE_FILL_AREA(#533);
#489=ORIENTED_EDGE('',*,*,#97,.F.);
#490=ORIENTED_EDGE('',*,*,#151,.F.);
#491=ORIENTED_EDGE('',*,*,#113,.F.);
#492=ORIENTED_EDGE('',*,*,#115,.T.);
#493=CARTESIAN_POINT('',(2.8421709430404E-014,6.36029918744502E-015,2.24999999999999));
#494=DIRECTION('',(0.0,-0.0,1.0));
#495=DIRECTION('',(-1.0,-1.63235659201861E-016,0.0));
#496=CARTESIAN_POINT('',(6.12843109593086E-014,7.31368969116378E-015,-1.4210854715202E-014));
#497=DIRECTION('',(0.0,0.0,-1.0));
#498=DIRECTION('',(0.0,-1.0,0.0));
#499=SURFACE_STYLE_FILL_AREA(#534);
#500=ORIENTED_EDGE('',*,*,#83,.F.);
#501=ORIENTED_EDGE('',*,*,#117,.F.);
#502=ORIENTED_EDGE('',*,*,#71,.F.);
#503=ORIENTED_EDGE('',*,*,#151,.T.);
#504=CARTESIAN_POINT('',(2.8421709430404E-014,6.36029918744502E-015,4.75));
#505=DIRECTION('',(0.0,-0.0,1.0));
#506=DIRECTION('',(-1.0,-1.63235659201861E-016,0.0));
#507=SURFACE_STYLE_FILL_AREA(#535);
#508=ORIENTED_EDGE('',*,*,#97,.T.);
#509=ORIENTED_EDGE('',*,*,#67,.T.);
#510=ORIENTED_EDGE('',*,*,#113,.T.);
#511=ORIENTED_EDGE('',*,*,#95,.F.);
#512=CARTESIAN_POINT('',(2.8421709430404E-014,6.36029918744502E-015,2.24999999999999));
#513=DIRECTION('',(0.0,-0.0,1.0));
#514=DIRECTION('',(-1.0,-1.63235659201861E-016,0.0));
#515=CARTESIAN_POINT('',(6.12843109593086E-014,7.31368969116378E-015,20.5705627484772));
#516=DIRECTION('',(2.44921270764475E-016,-1.0,0.0));
#517=DIRECTION('',(-0.0,0.0,1.0));
#518=CARTESIAN_POINT('',(2.8421709430404E-014,6.36029918744502E-015,3.59999999999997));
#519=DIRECTION('',(0.0,0.0,1.0));
#520=DIRECTION('',(-1.0,-1.63235659201861E-016,0.0));
#521=DIRECTION('',(-0.0,-0.0,1.0));
#522=CARTESIAN_POINT('',(2.8421709430404E-014,6.36029918744502E-015,4.5));
#523=DIRECTION('',(-0.0,0.0,-1.0));
#524=DIRECTION('',(-1.0,-1.63235659201861E-016,0.0));
#525=FILL_AREA_STYLE('',(#536));
#526=FILL_AREA_STYLE('',(#537));
#527=FILL_AREA_STYLE('',(#538));
#528=FILL_AREA_STYLE('',(#539));
#529=FILL_AREA_STYLE('',(#540));
#530=FILL_AREA_STYLE('',(#541));
#531=FILL_AREA_STYLE('',(#542));
#532=FILL_AREA_STYLE('',(#543));
#533=FILL_AREA_STYLE('',(#544));
#534=FILL_AREA_STYLE('',(#545));
#535=FILL_AREA_STYLE('',(#546));
#536=FILL_AREA_STYLE_COLOUR('',#547);
#537=FILL_AREA_STYLE_COLOUR('',#548);
#538=FILL_AREA_STYLE_COLOUR('',#549);
#539=FILL_AREA_STYLE_COLOUR('',#550);
#540=FILL_AREA_STYLE_COLOUR('',#551);
#541=FILL_AREA_STYLE_COLOUR('',#552);
#542=FILL_AREA_STYLE_COLOUR('',#553);
#543=FILL_AREA_STYLE_COLOUR('',#554);
#544=FILL_AREA_STYLE_COLOUR('',#555);
#545=FILL_AREA_STYLE_COLOUR('',#556);
#546=FILL_AREA_STYLE_COLOUR('',#557);
#547=COLOUR_RGB('',0.509803950786591,0.509803950786591,0.588235318660736);
#548=COLOUR_RGB('',0.509803950786591,0.509803950786591,0.588235318660736);
#549=COLOUR_RGB('',0.509803950786591,0.509803950786591,0.588235318660736);
#550=COLOUR_RGB('',0.509803950786591,0.509803950786591,0.588235318660736);
#551=COLOUR_RGB('',0.509803950786591,0.509803950786591,0.588235318660736);
#552=COLOUR_RGB('',0.509803950786591,0.509803950786591,0.588235318660736);
#553=COLOUR_RGB('',0.509803950786591,0.509803950786591,0.588235318660736);
#554=COLOUR_RGB('',0.509803950786591,0.509803950786591,0.588235318660736);
#555=COLOUR_RGB('',0.509803950786591,0.509803950786591,0.588235318660736);
#556=COLOUR_RGB('',0.509803950786591,0.509803950786591,0.588235318660736);
#557=COLOUR_RGB('',0.509803950786591,0.509803950786591,0.588235318660736);
ENDSEC;
END-ISO-10303-21;
