ISO-10303-21;
HEADER;
FILE_DESCRIPTION(('STEP AP214'),'1');
FILE_NAME('C:/temp/halder/09_10_2014/CAD/Temp/HALDERN_EH_23020_0860.stp','2014-10-09T11:17:38',('TraceParts'),('TraceParts S.A.'),'Spatial InterOp 3D',' ',' ');
FILE_SCHEMA(('automotive_design'));
ENDSEC;
DATA;
#1=MECHANICAL_DESIGN_GEOMETRIC_PRESENTATION_REPRESENTATION(' ',(#10,#11,#12,#13,#14,#15,#16,#17,#18,#19,#20,#21,#22,#23,#24,#25,#26),#6);
#2=PRODUCT_DEFINITION_CONTEXT('',#27,'design');
#3=APPLICATION_PROTOCOL_DEFINITION('INTERNATIONAL STANDARD','automotive_design',1994,#27);
#4=PRODUCT_CATEGORY_RELATIONSHIP('NONE','NONE',#28,#29);
#5=SHAPE_DEFINITION_REPRESENTATION(#30,#31);
#6= (GEOMETRIC_REPRESENTATION_CONTEXT(3)GLOBAL_UNCERTAINTY_ASSIGNED_CONTEXT((#34))GLOBAL_UNIT_ASSIGNED_CONTEXT((#36,#37,#38))REPRESENTATION_CONTEXT('NONE','WORKSPACE'));
#10=STYLED_ITEM('',(#40),#41);
#11=STYLED_ITEM('',(#42),#43);
#12=STYLED_ITEM('',(#44),#45);
#13=STYLED_ITEM('',(#46),#47);
#14=STYLED_ITEM('',(#48),#49);
#15=STYLED_ITEM('',(#50),#51);
#16=STYLED_ITEM('',(#52),#53);
#17=STYLED_ITEM('',(#54),#55);
#18=STYLED_ITEM('',(#56),#57);
#19=STYLED_ITEM('',(#58),#59);
#20=STYLED_ITEM('',(#60),#61);
#21=STYLED_ITEM('',(#62),#63);
#22=STYLED_ITEM('',(#64),#65);
#23=STYLED_ITEM('',(#66),#67);
#24=STYLED_ITEM('',(#68),#69);
#25=STYLED_ITEM('',(#70),#71);
#26=STYLED_ITEM('',(#72),#73);
#27=APPLICATION_CONTEXT(' ');
#28=PRODUCT_CATEGORY('part','NONE');
#29=PRODUCT_RELATED_PRODUCT_CATEGORY('detail',' ',(#74));
#30=PRODUCT_DEFINITION_SHAPE('NONE','NONE',#75);
#31=ADVANCED_BREP_SHAPE_REPRESENTATION('1',(#45,#76),#6);
#34=UNCERTAINTY_MEASURE_WITH_UNIT(LENGTH_MEASURE(1.0E-006),#36,'','');
#36= (CONVERSION_BASED_UNIT('MILLIMETRE',#79)LENGTH_UNIT()NAMED_UNIT(#82));
#37= (NAMED_UNIT(#84)PLANE_ANGLE_UNIT()SI_UNIT($,.RADIAN.));
#38= (NAMED_UNIT(#84)SOLID_ANGLE_UNIT()SI_UNIT($,.STERADIAN.));
#40=PRESENTATION_STYLE_ASSIGNMENT((#90));
#41=ADVANCED_FACE('',(#91),#92,.T.);
#42=PRESENTATION_STYLE_ASSIGNMENT((#93));
#43=ADVANCED_FACE('',(#94),#95,.F.);
#44=PRESENTATION_STYLE_ASSIGNMENT((#96));
#45=MANIFOLD_SOLID_BREP('1',#97);
#46=PRESENTATION_STYLE_ASSIGNMENT((#98));
#47=ADVANCED_FACE('',(#99),#100,.F.);
#48=PRESENTATION_STYLE_ASSIGNMENT((#101));
#49=ADVANCED_FACE('',(#102),#103,.T.);
#50=PRESENTATION_STYLE_ASSIGNMENT((#104));
#51=ADVANCED_FACE('',(#105,#106),#107,.T.);
#52=PRESENTATION_STYLE_ASSIGNMENT((#108));
#53=ADVANCED_FACE('',(#109),#110,.F.);
#54=PRESENTATION_STYLE_ASSIGNMENT((#111));
#55=ADVANCED_FACE('',(#112),#113,.T.);
#56=PRESENTATION_STYLE_ASSIGNMENT((#114));
#57=ADVANCED_FACE('',(#115,#116),#117,.T.);
#58=PRESENTATION_STYLE_ASSIGNMENT((#118));
#59=ADVANCED_FACE('',(#119),#120,.T.);
#60=PRESENTATION_STYLE_ASSIGNMENT((#121));
#61=ADVANCED_FACE('',(#122),#123,.F.);
#62=PRESENTATION_STYLE_ASSIGNMENT((#124));
#63=ADVANCED_FACE('',(#125),#126,.T.);
#64=PRESENTATION_STYLE_ASSIGNMENT((#127));
#65=ADVANCED_FACE('',(#128),#129,.F.);
#66=PRESENTATION_STYLE_ASSIGNMENT((#130));
#67=ADVANCED_FACE('',(#131),#132,.T.);
#68=PRESENTATION_STYLE_ASSIGNMENT((#133));
#69=ADVANCED_FACE('',(#134),#135,.T.);
#70=PRESENTATION_STYLE_ASSIGNMENT((#136));
#71=ADVANCED_FACE('',(#137),#138,.T.);
#72=PRESENTATION_STYLE_ASSIGNMENT((#139));
#73=ADVANCED_FACE('',(#140),#141,.F.);
#74=PRODUCT('1','1','PART-1-DESC',(#142));
#75=PRODUCT_DEFINITION('NONE','NONE',#143,#2);
#76=AXIS2_PLACEMENT_3D('',#144,#145,#146);
#79=LENGTH_MEASURE_WITH_UNIT(LENGTH_MEASURE(1.0),#147);
#82=DIMENSIONAL_EXPONENTS(1.0,0.0,0.0,0.0,0.0,0.0,0.0);
#84=DIMENSIONAL_EXPONENTS(0.0,0.0,0.0,0.0,0.0,0.0,0.0);
#90=SURFACE_STYLE_USAGE(.BOTH.,#148);
#91=FACE_OUTER_BOUND('',#149,.T.);
#92=PLANE('',#150);
#93=SURFACE_STYLE_USAGE(.BOTH.,#151);
#94=FACE_OUTER_BOUND('',#152,.T.);
#95=CYLINDRICAL_SURFACE('',#153,13.25);
#96=SURFACE_STYLE_USAGE(.BOTH.,#154);
#97=CLOSED_SHELL('',(#53,#61,#71,#65,#47,#49,#63,#51,#41,#67,#73,#43,#57,#69,#55,#59));
#98=SURFACE_STYLE_USAGE(.BOTH.,#155);
#99=FACE_OUTER_BOUND('',#156,.T.);
#100=PLANE('',#157);
#101=SURFACE_STYLE_USAGE(.BOTH.,#158);
#102=FACE_OUTER_BOUND('',#159,.T.);
#103=PLANE('',#160);
#104=SURFACE_STYLE_USAGE(.BOTH.,#161);
#105=FACE_BOUND('',#162,.T.);
#106=FACE_OUTER_BOUND('',#163,.T.);
#107=PLANE('',#164);
#108=SURFACE_STYLE_USAGE(.BOTH.,#165);
#109=FACE_OUTER_BOUND('',#166,.T.);
#110=CYLINDRICAL_SURFACE('',#167,13.25);
#111=SURFACE_STYLE_USAGE(.BOTH.,#168);
#112=FACE_OUTER_BOUND('',#169,.T.);
#113=PLANE('',#170);
#114=SURFACE_STYLE_USAGE(.BOTH.,#171);
#115=FACE_OUTER_BOUND('',#172,.T.);
#116=FACE_BOUND('',#173,.T.);
#117=PLANE('',#174);
#118=SURFACE_STYLE_USAGE(.BOTH.,#175);
#119=FACE_OUTER_BOUND('',#176,.T.);
#120=PLANE('',#177);
#121=SURFACE_STYLE_USAGE(.BOTH.,#178);
#122=FACE_OUTER_BOUND('',#179,.T.);
#123=CONICAL_SURFACE('',#180,14.0527347146108,1.0471975511966);
#124=SURFACE_STYLE_USAGE(.BOTH.,#181);
#125=FACE_OUTER_BOUND('',#182,.T.);
#126=PLANE('',#183);
#127=SURFACE_STYLE_USAGE(.BOTH.,#184);
#128=FACE_OUTER_BOUND('',#185,.T.);
#129=PLANE('',#186);
#130=SURFACE_STYLE_USAGE(.BOTH.,#187);
#131=FACE_OUTER_BOUND('',#188,.T.);
#132=PLANE('',#189);
#133=SURFACE_STYLE_USAGE(.BOTH.,#190);
#134=FACE_OUTER_BOUND('',#191,.T.);
#135=PLANE('',#192);
#136=SURFACE_STYLE_USAGE(.BOTH.,#193);
#137=FACE_OUTER_BOUND('',#194,.T.);
#138=PLANE('',#195);
#139=SURFACE_STYLE_USAGE(.BOTH.,#196);
#140=FACE_OUTER_BOUND('',#197,.T.);
#141=CONICAL_SURFACE('',#198,14.0527347146108,1.0471975511966);
#142=PRODUCT_CONTEXT('',#27,'mechanical');
#143=PRODUCT_DEFINITION_FORMATION_WITH_SPECIFIED_SOURCE(' ','NONE',#74,.NOT_KNOWN.);
#144=CARTESIAN_POINT('',(0.0,0.0,0.0));
#145=DIRECTION('',(0.0,0.0,1.0));
#146=DIRECTION('',(1.0,0.0,0.0));
#147= (NAMED_UNIT(#82)LENGTH_UNIT()SI_UNIT(.MILLI.,.METRE.));
#148=SURFACE_SIDE_STYLE('',(#200));
#149=EDGE_LOOP('',(#201,#202,#203,#204));
#150=AXIS2_PLACEMENT_3D('',#205,#206,#207);
#151=SURFACE_SIDE_STYLE('',(#208));
#152=EDGE_LOOP('',(#209,#210,#211,#212,#213));
#153=AXIS2_PLACEMENT_3D('',#214,#215,#216);
#154=SURFACE_SIDE_STYLE('',(#217));
#155=SURFACE_SIDE_STYLE('',(#218));
#156=EDGE_LOOP('',(#219,#220,#221,#222,#223,#224,#225,#226,#227,#228));
#157=AXIS2_PLACEMENT_3D('',#229,#230,#231);
#158=SURFACE_SIDE_STYLE('',(#232));
#159=EDGE_LOOP('',(#233,#234,#235,#236));
#160=AXIS2_PLACEMENT_3D('',#237,#238,#239);
#161=SURFACE_SIDE_STYLE('',(#240));
#162=EDGE_LOOP('',(#241,#242,#243));
#163=EDGE_LOOP('',(#244,#245,#246,#247));
#164=AXIS2_PLACEMENT_3D('',#248,#249,#250);
#165=SURFACE_SIDE_STYLE('',(#251));
#166=EDGE_LOOP('',(#252,#253,#254,#255,#256));
#167=AXIS2_PLACEMENT_3D('',#257,#258,#259);
#168=SURFACE_SIDE_STYLE('',(#260));
#169=EDGE_LOOP('',(#261,#262,#263,#264));
#170=AXIS2_PLACEMENT_3D('',#265,#266,#267);
#171=SURFACE_SIDE_STYLE('',(#268));
#172=EDGE_LOOP('',(#269,#270,#271,#272));
#173=EDGE_LOOP('',(#273,#274));
#174=AXIS2_PLACEMENT_3D('',#275,#276,#277);
#175=SURFACE_SIDE_STYLE('',(#278));
#176=EDGE_LOOP('',(#279,#280,#281,#282));
#177=AXIS2_PLACEMENT_3D('',#283,#284,#285);
#178=SURFACE_SIDE_STYLE('',(#286));
#179=EDGE_LOOP('',(#287,#288,#289,#290,#291,#292));
#180=AXIS2_PLACEMENT_3D('',#293,#294,#295);
#181=SURFACE_SIDE_STYLE('',(#296));
#182=EDGE_LOOP('',(#297,#298,#299,#300));
#183=AXIS2_PLACEMENT_3D('',#301,#302,#303);
#184=SURFACE_SIDE_STYLE('',(#304));
#185=EDGE_LOOP('',(#305,#306,#307,#308,#309,#310,#311,#312,#313,#314));
#186=AXIS2_PLACEMENT_3D('',#315,#316,#317);
#187=SURFACE_SIDE_STYLE('',(#318));
#188=EDGE_LOOP('',(#319,#320,#321,#322));
#189=AXIS2_PLACEMENT_3D('',#323,#324,#325);
#190=SURFACE_SIDE_STYLE('',(#326));
#191=EDGE_LOOP('',(#327,#328,#329,#330));
#192=AXIS2_PLACEMENT_3D('',#331,#332,#333);
#193=SURFACE_SIDE_STYLE('',(#334));
#194=EDGE_LOOP('',(#335,#336,#337,#338));
#195=AXIS2_PLACEMENT_3D('',#339,#340,#341);
#196=SURFACE_SIDE_STYLE('',(#342));
#197=EDGE_LOOP('',(#343,#344,#345,#346,#347));
#198=AXIS2_PLACEMENT_3D('',#348,#349,#350);
#200=SURFACE_STYLE_FILL_AREA(#351);
#201=ORIENTED_EDGE('',*,*,#352,.T.);
#202=ORIENTED_EDGE('',*,*,#353,.F.);
#203=ORIENTED_EDGE('',*,*,#354,.T.);
#204=ORIENTED_EDGE('',*,*,#355,.T.);
#205=CARTESIAN_POINT('',(17.75,1.05723015769391E-014,22.0));
#206=DIRECTION('',(1.0,0.0,0.0));
#207=DIRECTION('',(0.0,1.0,-6.12303176911189E-017));
#208=SURFACE_STYLE_FILL_AREA(#356);
#209=ORIENTED_EDGE('',*,*,#357,.T.);
#210=ORIENTED_EDGE('',*,*,#358,.T.);
#211=ORIENTED_EDGE('',*,*,#359,.T.);
#212=ORIENTED_EDGE('',*,*,#360,.T.);
#213=ORIENTED_EDGE('',*,*,#361,.F.);
#214=CARTESIAN_POINT('',(-2.8421709430404E-014,0.0,22.0));
#215=DIRECTION('',(0.0,0.0,-1.0));
#216=DIRECTION('',(1.0,0.0,0.0));
#217=SURFACE_STYLE_FILL_AREA(#362);
#218=SURFACE_STYLE_FILL_AREA(#363);
#219=ORIENTED_EDGE('',*,*,#364,.F.);
#220=ORIENTED_EDGE('',*,*,#365,.F.);
#221=ORIENTED_EDGE('',*,*,#366,.F.);
#222=ORIENTED_EDGE('',*,*,#367,.F.);
#223=ORIENTED_EDGE('',*,*,#368,.F.);
#224=ORIENTED_EDGE('',*,*,#369,.F.);
#225=ORIENTED_EDGE('',*,*,#370,.F.);
#226=ORIENTED_EDGE('',*,*,#352,.F.);
#227=ORIENTED_EDGE('',*,*,#371,.F.);
#228=ORIENTED_EDGE('',*,*,#372,.F.);
#229=CARTESIAN_POINT('',(-27.0,-52.1022907321224,-22.0));
#230=DIRECTION('',(-0.707106781186548,0.707106781186547,0.0));
#231=DIRECTION('',(0.0,0.0,1.0));
#232=SURFACE_STYLE_FILL_AREA(#373);
#233=ORIENTED_EDGE('',*,*,#374,.T.);
#234=ORIENTED_EDGE('',*,*,#375,.T.);
#235=ORIENTED_EDGE('',*,*,#364,.T.);
#236=ORIENTED_EDGE('',*,*,#376,.F.);
#237=CARTESIAN_POINT('',(-27.0,9.22523458773445E-015,0.0));
#238=DIRECTION('',(0.0,6.12303176911189E-017,1.0));
#239=DIRECTION('',(0.0,-1.0,6.12303176911189E-017));
#240=SURFACE_STYLE_FILL_AREA(#377);
#241=ORIENTED_EDGE('',*,*,#378,.T.);
#242=ORIENTED_EDGE('',*,*,#379,.T.);
#243=ORIENTED_EDGE('',*,*,#380,.T.);
#244=ORIENTED_EDGE('',*,*,#355,.F.);
#245=ORIENTED_EDGE('',*,*,#381,.T.);
#246=ORIENTED_EDGE('',*,*,#382,.T.);
#247=ORIENTED_EDGE('',*,*,#371,.T.);
#248=CARTESIAN_POINT('',(-17.75,1.05723015769391E-014,22.0));
#249=DIRECTION('',(0.0,6.12303176911189E-017,1.0));
#250=DIRECTION('',(0.0,-1.0,6.12303176911189E-017));
#251=SURFACE_STYLE_FILL_AREA(#383);
#252=ORIENTED_EDGE('',*,*,#357,.F.);
#253=ORIENTED_EDGE('',*,*,#384,.F.);
#254=ORIENTED_EDGE('',*,*,#360,.F.);
#255=ORIENTED_EDGE('',*,*,#385,.T.);
#256=ORIENTED_EDGE('',*,*,#386,.T.);
#257=CARTESIAN_POINT('',(-2.8421709430404E-014,0.0,22.0));
#258=DIRECTION('',(0.0,0.0,-1.0));
#259=DIRECTION('',(1.0,0.0,0.0));
#260=SURFACE_STYLE_FILL_AREA(#387);
#261=ORIENTED_EDGE('',*,*,#388,.T.);
#262=ORIENTED_EDGE('',*,*,#389,.T.);
#263=ORIENTED_EDGE('',*,*,#366,.T.);
#264=ORIENTED_EDGE('',*,*,#390,.F.);
#265=CARTESIAN_POINT('',(-20.9999999999998,7.87816759852984E-015,-22.0));
#266=DIRECTION('',(-0.707106781186541,-4.32963728535972E-017,-0.707106781186554));
#267=DIRECTION('',(-1.86188805983692E-033,-1.0,6.12303176911189E-017));
#268=SURFACE_STYLE_FILL_AREA(#391);
#269=ORIENTED_EDGE('',*,*,#392,.T.);
#270=ORIENTED_EDGE('',*,*,#367,.T.);
#271=ORIENTED_EDGE('',*,*,#389,.F.);
#272=ORIENTED_EDGE('',*,*,#393,.T.);
#273=ORIENTED_EDGE('',*,*,#361,.T.);
#274=ORIENTED_EDGE('',*,*,#384,.T.);
#275=CARTESIAN_POINT('',(21.0,7.87816759852984E-015,-22.0));
#276=DIRECTION('',(0.0,-6.12303176911189E-017,-1.0));
#277=DIRECTION('',(0.0,1.0,-6.12303176911189E-017));
#278=SURFACE_STYLE_FILL_AREA(#394);
#279=ORIENTED_EDGE('',*,*,#395,.T.);
#280=ORIENTED_EDGE('',*,*,#390,.T.);
#281=ORIENTED_EDGE('',*,*,#365,.T.);
#282=ORIENTED_EDGE('',*,*,#375,.F.);
#283=CARTESIAN_POINT('',(-27.0,8.24554950467655E-015,-16.0));
#284=DIRECTION('',(-1.0,0.0,0.0));
#285=DIRECTION('',(0.0,-1.0,6.12303176911189E-017));
#286=SURFACE_STYLE_FILL_AREA(#396);
#287=ORIENTED_EDGE('',*,*,#397,.F.);
#288=ORIENTED_EDGE('',*,*,#358,.F.);
#289=ORIENTED_EDGE('',*,*,#386,.F.);
#290=ORIENTED_EDGE('',*,*,#398,.F.);
#291=ORIENTED_EDGE('',*,*,#378,.F.);
#292=ORIENTED_EDGE('',*,*,#380,.F.);
#293=CARTESIAN_POINT('',(0.0,1.05723015769391E-014,21.4530961324865));
#294=DIRECTION('',(-0.0,-0.0,1.0));
#295=DIRECTION('',(-5.61271105647992E-017,1.0,0.0));
#296=SURFACE_STYLE_FILL_AREA(#399);
#297=ORIENTED_EDGE('',*,*,#372,.T.);
#298=ORIENTED_EDGE('',*,*,#382,.F.);
#299=ORIENTED_EDGE('',*,*,#400,.T.);
#300=ORIENTED_EDGE('',*,*,#376,.T.);
#301=CARTESIAN_POINT('',(-17.75,9.22523458773445E-015,0.0));
#302=DIRECTION('',(-1.0,0.0,0.0));
#303=DIRECTION('',(0.0,-1.0,6.12303176911189E-017));
#304=SURFACE_STYLE_FILL_AREA(#401);
#305=ORIENTED_EDGE('',*,*,#388,.F.);
#306=ORIENTED_EDGE('',*,*,#395,.F.);
#307=ORIENTED_EDGE('',*,*,#374,.F.);
#308=ORIENTED_EDGE('',*,*,#400,.F.);
#309=ORIENTED_EDGE('',*,*,#381,.F.);
#310=ORIENTED_EDGE('',*,*,#354,.F.);
#311=ORIENTED_EDGE('',*,*,#402,.F.);
#312=ORIENTED_EDGE('',*,*,#403,.F.);
#313=ORIENTED_EDGE('',*,*,#404,.F.);
#314=ORIENTED_EDGE('',*,*,#393,.F.);
#315=CARTESIAN_POINT('',(27.0,52.1022907321224,-22.0));
#316=DIRECTION('',(0.707106781186548,-0.707106781186547,0.0));
#317=DIRECTION('',(0.0,0.0,-1.0));
#318=SURFACE_STYLE_FILL_AREA(#405);
#319=ORIENTED_EDGE('',*,*,#370,.T.);
#320=ORIENTED_EDGE('',*,*,#406,.T.);
#321=ORIENTED_EDGE('',*,*,#402,.T.);
#322=ORIENTED_EDGE('',*,*,#353,.T.);
#323=CARTESIAN_POINT('',(17.75,9.22523458773445E-015,2.8421709430404E-014));
#324=DIRECTION('',(0.0,6.12303176911189E-017,1.0));
#325=DIRECTION('',(0.0,-1.0,6.12303176911189E-017));
#326=SURFACE_STYLE_FILL_AREA(#407);
#327=ORIENTED_EDGE('',*,*,#368,.T.);
#328=ORIENTED_EDGE('',*,*,#392,.F.);
#329=ORIENTED_EDGE('',*,*,#404,.T.);
#330=ORIENTED_EDGE('',*,*,#408,.F.);
#331=CARTESIAN_POINT('',(27.0,8.24554950467655E-015,-16.0));
#332=DIRECTION('',(0.707106781186548,-4.32963728535968E-017,-0.707106781186548));
#333=DIRECTION('',(-1.07031965039769E-033,1.0,-6.12303176911189E-017));
#334=SURFACE_STYLE_FILL_AREA(#409);
#335=ORIENTED_EDGE('',*,*,#403,.T.);
#336=ORIENTED_EDGE('',*,*,#406,.F.);
#337=ORIENTED_EDGE('',*,*,#369,.T.);
#338=ORIENTED_EDGE('',*,*,#408,.T.);
#339=CARTESIAN_POINT('',(27.0,8.24554950467655E-015,-16.0));
#340=DIRECTION('',(1.0,0.0,0.0));
#341=DIRECTION('',(0.0,1.0,-6.12303176911189E-017));
#342=SURFACE_STYLE_FILL_AREA(#410);
#343=ORIENTED_EDGE('',*,*,#397,.T.);
#344=ORIENTED_EDGE('',*,*,#379,.F.);
#345=ORIENTED_EDGE('',*,*,#398,.T.);
#346=ORIENTED_EDGE('',*,*,#385,.F.);
#347=ORIENTED_EDGE('',*,*,#359,.F.);
#348=CARTESIAN_POINT('',(0.0,1.05723015769391E-014,21.4530961324865));
#349=DIRECTION('',(-0.0,-0.0,1.0));
#350=DIRECTION('',(-5.61271105647992E-017,1.0,0.0));
#351=FILL_AREA_STYLE('',(#411));
#352=EDGE_CURVE('',#412,#413,#414,.T.);
#353=EDGE_CURVE('',#415,#413,#416,.T.);
#354=EDGE_CURVE('',#415,#417,#418,.T.);
#355=EDGE_CURVE('',#417,#412,#419,.T.);
#356=FILL_AREA_STYLE('',(#420));
#357=EDGE_CURVE('',#421,#422,#423,.T.);
#358=EDGE_CURVE('',#422,#424,#425,.T.);
#359=EDGE_CURVE('',#424,#426,#427,.T.);
#360=EDGE_CURVE('',#426,#428,#429,.T.);
#361=EDGE_CURVE('',#421,#428,#430,.T.);
#362=FILL_AREA_STYLE('',(#431));
#363=FILL_AREA_STYLE('',(#432));
#364=EDGE_CURVE('',#433,#434,#435,.T.);
#365=EDGE_CURVE('',#436,#433,#437,.T.);
#366=EDGE_CURVE('',#438,#436,#439,.T.);
#367=EDGE_CURVE('',#440,#438,#441,.T.);
#368=EDGE_CURVE('',#442,#440,#443,.T.);
#369=EDGE_CURVE('',#444,#442,#445,.T.);
#370=EDGE_CURVE('',#413,#444,#446,.T.);
#371=EDGE_CURVE('',#447,#412,#448,.T.);
#372=EDGE_CURVE('',#434,#447,#449,.T.);
#373=FILL_AREA_STYLE('',(#450));
#374=EDGE_CURVE('',#451,#452,#453,.T.);
#375=EDGE_CURVE('',#452,#433,#454,.T.);
#376=EDGE_CURVE('',#451,#434,#455,.T.);
#377=FILL_AREA_STYLE('',(#456));
#378=EDGE_CURVE('',#457,#458,#459,.T.);
#379=EDGE_CURVE('',#458,#460,#461,.T.);
#380=EDGE_CURVE('',#460,#457,#462,.T.);
#381=EDGE_CURVE('',#417,#463,#464,.T.);
#382=EDGE_CURVE('',#463,#447,#465,.T.);
#383=FILL_AREA_STYLE('',(#466));
#384=EDGE_CURVE('',#428,#421,#467,.T.);
#385=EDGE_CURVE('',#426,#468,#469,.T.);
#386=EDGE_CURVE('',#468,#422,#470,.T.);
#387=FILL_AREA_STYLE('',(#471));
#388=EDGE_CURVE('',#472,#473,#474,.T.);
#389=EDGE_CURVE('',#473,#438,#475,.T.);
#390=EDGE_CURVE('',#472,#436,#476,.T.);
#391=FILL_AREA_STYLE('',(#477));
#392=EDGE_CURVE('',#478,#440,#479,.T.);
#393=EDGE_CURVE('',#473,#478,#480,.T.);
#394=FILL_AREA_STYLE('',(#481));
#395=EDGE_CURVE('',#452,#472,#482,.T.);
#396=FILL_AREA_STYLE('',(#483));
#397=EDGE_CURVE('',#424,#460,#484,.T.);
#398=EDGE_CURVE('',#458,#468,#485,.T.);
#399=FILL_AREA_STYLE('',(#486));
#400=EDGE_CURVE('',#463,#451,#487,.T.);
#401=FILL_AREA_STYLE('',(#488));
#402=EDGE_CURVE('',#489,#415,#490,.T.);
#403=EDGE_CURVE('',#491,#489,#492,.T.);
#404=EDGE_CURVE('',#478,#491,#493,.T.);
#405=FILL_AREA_STYLE('',(#494));
#406=EDGE_CURVE('',#444,#489,#495,.T.);
#407=FILL_AREA_STYLE('',(#496));
#408=EDGE_CURVE('',#442,#491,#497,.T.);
#409=FILL_AREA_STYLE('',(#498));
#410=FILL_AREA_STYLE('',(#499));
#411=FILL_AREA_STYLE_COLOUR('',#500);
#412=VERTEX_POINT('',#501);
#413=VERTEX_POINT('',#502);
#414=LINE('',#503,#504);
#415=VERTEX_POINT('',#505);
#416=LINE('',#506,#507);
#417=VERTEX_POINT('',#508);
#418=LINE('',#509,#510);
#419=LINE('',#511,#512);
#420=FILL_AREA_STYLE_COLOUR('',#513);
#421=VERTEX_POINT('',#514);
#422=VERTEX_POINT('',#515);
#423=LINE('',#516,#517);
#424=VERTEX_POINT('',#518);
#425=CIRCLE('',#519,13.25);
#426=VERTEX_POINT('',#520);
#427=CIRCLE('',#521,13.25);
#428=VERTEX_POINT('',#522);
#429=LINE('',#523,#524);
#430=CIRCLE('',#525,13.25);
#431=FILL_AREA_STYLE_COLOUR('',#526);
#432=FILL_AREA_STYLE_COLOUR('',#527);
#433=VERTEX_POINT('',#528);
#434=VERTEX_POINT('',#529);
#435=LINE('',#530,#531);
#436=VERTEX_POINT('',#532);
#437=LINE('',#533,#534);
#438=VERTEX_POINT('',#535);
#439=LINE('',#536,#537);
#440=VERTEX_POINT('',#538);
#441=LINE('',#539,#540);
#442=VERTEX_POINT('',#541);
#443=LINE('',#542,#543);
#444=VERTEX_POINT('',#544);
#445=LINE('',#545,#546);
#446=LINE('',#547,#548);
#447=VERTEX_POINT('',#549);
#448=LINE('',#550,#551);
#449=LINE('',#552,#553);
#450=FILL_AREA_STYLE_COLOUR('',#554);
#451=VERTEX_POINT('',#555);
#452=VERTEX_POINT('',#556);
#453=LINE('',#557,#558);
#454=LINE('',#559,#560);
#455=LINE('',#561,#562);
#456=FILL_AREA_STYLE_COLOUR('',#563);
#457=VERTEX_POINT('',#564);
#458=VERTEX_POINT('',#565);
#459=CIRCLE('',#566,15.0);
#460=VERTEX_POINT('',#567);
#461=CIRCLE('',#568,15.0);
#462=CIRCLE('',#569,15.0);
#463=VERTEX_POINT('',#570);
#464=LINE('',#571,#572);
#465=LINE('',#573,#574);
#466=FILL_AREA_STYLE_COLOUR('',#575);
#467=CIRCLE('',#576,13.25);
#468=VERTEX_POINT('',#577);
#469=CIRCLE('',#578,13.25);
#470=CIRCLE('',#579,13.25);
#471=FILL_AREA_STYLE_COLOUR('',#580);
#472=VERTEX_POINT('',#581);
#473=VERTEX_POINT('',#582);
#474=LINE('',#583,#584);
#475=LINE('',#585,#586);
#476=LINE('',#587,#588);
#477=FILL_AREA_STYLE_COLOUR('',#589);
#478=VERTEX_POINT('',#590);
#479=LINE('',#591,#592);
#480=LINE('',#593,#594);
#481=FILL_AREA_STYLE_COLOUR('',#595);
#482=LINE('',#596,#597);
#483=FILL_AREA_STYLE_COLOUR('',#598);
#484=LINE('',#599,#600);
#485=LINE('',#601,#602);
#486=FILL_AREA_STYLE_COLOUR('',#603);
#487=LINE('',#604,#605);
#488=FILL_AREA_STYLE_COLOUR('',#606);
#489=VERTEX_POINT('',#607);
#490=LINE('',#608,#609);
#491=VERTEX_POINT('',#610);
#492=LINE('',#611,#612);
#493=LINE('',#613,#614);
#494=FILL_AREA_STYLE_COLOUR('',#615);
#495=LINE('',#616,#617);
#496=FILL_AREA_STYLE_COLOUR('',#618);
#497=LINE('',#619,#620);
#498=FILL_AREA_STYLE_COLOUR('',#621);
#499=FILL_AREA_STYLE_COLOUR('',#622);
#500=COLOUR_RGB('',0.509803950786591,0.509803950786591,0.588235318660736);
#501=CARTESIAN_POINT('',(17.75,-7.35229073212239,22.0));
#502=CARTESIAN_POINT('',(17.75,-7.35229073212239,2.88718925276893E-014));
#503=CARTESIAN_POINT('',(17.75,-7.35229073212239,1.4210854715202E-014));
#504=VECTOR('',#623,1.0);
#505=CARTESIAN_POINT('',(17.75,42.8522907321224,2.5797850055084E-014));
#506=CARTESIAN_POINT('',(17.75,9.22523458773445E-015,2.8421709430404E-014));
#507=VECTOR('',#624,1.0);
#508=CARTESIAN_POINT('',(17.75,42.8522907321224,22.0));
#509=CARTESIAN_POINT('',(17.75,42.8522907321224,-11.0));
#510=VECTOR('',#625,1.0);
#511=CARTESIAN_POINT('',(17.75,1.05723015769391E-014,22.0));
#512=VECTOR('',#626,1.0);
#513=COLOUR_RGB('',0.509803950786591,0.509803950786591,0.588235318660736);
#514=CARTESIAN_POINT('',(13.25,0.0,-22.0));
#515=CARTESIAN_POINT('',(13.25,1.05723015769391E-014,20.9896370289181));
#516=CARTESIAN_POINT('',(13.25,1.62260341881465E-015,-0.505181485540938));
#517=VECTOR('',#627,1.0);
#518=CARTESIAN_POINT('',(-2.36628763379824E-015,13.25,20.9896370289182));
#519=AXIS2_PLACEMENT_3D('',#628,#629,#630);
#520=CARTESIAN_POINT('',(-13.25,-1.62260341881465E-015,20.9896370289182));
#521=AXIS2_PLACEMENT_3D('',#631,#632,#633);
#522=CARTESIAN_POINT('',(-13.25,-1.62260341881465E-015,-22.0));
#523=CARTESIAN_POINT('',(-13.25,-1.62260341881465E-015,-0.505181485540938));
#524=VECTOR('',#634,1.0);
#525=AXIS2_PLACEMENT_3D('',#635,#636,#637);
#526=COLOUR_RGB('',0.509803950786591,0.509803950786591,0.588235318660736);
#527=COLOUR_RGB('',0.509803950786591,0.509803950786591,0.588235318660736);
#528=CARTESIAN_POINT('',(-27.0,-52.1022907321224,3.19023981396289E-015));
#529=CARTESIAN_POINT('',(-17.75,-42.8522907321224,2.62385937532004E-015));
#530=CARTESIAN_POINT('',(-13.9744273169694,-39.0767180490918,1.77635683940025E-015));
#531=VECTOR('',#638,1.0);
#532=CARTESIAN_POINT('',(-27.0,-52.1022907321224,-15.9999999999999));
#533=CARTESIAN_POINT('',(-27.0,-52.1022907321224,-19.0));
#534=VECTOR('',#639,1.0);
#535=CARTESIAN_POINT('',(-20.9999999999998,-46.1022907321222,-22.0));
#536=CARTESIAN_POINT('',(-15.3162848779794,-40.4185756101018,-27.6837151220203));
#537=VECTOR('',#640,1.0);
#538=CARTESIAN_POINT('',(21.0,-4.10229073212239,-22.0));
#539=CARTESIAN_POINT('',(-1.9744273169694,-27.0767180490918,-22.0));
#540=VECTOR('',#641,1.0);
#541=CARTESIAN_POINT('',(27.0,1.89770926787762,-16.0000000000001));
#542=CARTESIAN_POINT('',(5.68371512202041,-19.418575610102,-37.3162848779796));
#543=VECTOR('',#642,1.0);
#544=CARTESIAN_POINT('',(27.0,1.89770926787762,2.8421709430404E-014));
#545=CARTESIAN_POINT('',(27.0,1.89770926787762,-19.0));
#546=VECTOR('',#643,1.0);
#547=CARTESIAN_POINT('',(-0.474427316969402,-25.5767180490918,3.01980662698043E-014));
#548=VECTOR('',#644,1.0);
#549=CARTESIAN_POINT('',(-17.75,-42.8522907321224,22.0));
#550=CARTESIAN_POINT('',(-11.6619273169694,-36.7642180490918,22.0));
#551=VECTOR('',#645,1.0);
#552=CARTESIAN_POINT('',(-17.75,-42.8522907321224,-11.0));
#553=VECTOR('',#646,1.0);
#554=COLOUR_RGB('',0.509803950786591,0.509803950786591,0.588235318660736);
#555=CARTESIAN_POINT('',(-17.75,7.35229073212242,-4.50183097285324E-016));
#556=CARTESIAN_POINT('',(-27.0,-1.89770926787758,1.16197341357525E-016));
#557=CARTESIAN_POINT('',(0.474427316969426,25.5767180490918,-1.77635683940025E-015));
#558=VECTOR('',#647,1.0);
#559=CARTESIAN_POINT('',(-27.0,9.22523458773445E-015,0.0));
#560=VECTOR('',#648,1.0);
#561=CARTESIAN_POINT('',(-17.75,9.22523458773445E-015,0.0));
#562=VECTOR('',#649,1.0);
#563=COLOUR_RGB('',0.509803950786591,0.509803950786591,0.588235318660736);
#564=CARTESIAN_POINT('',(15.0,1.05723015769391E-014,22.0));
#565=CARTESIAN_POINT('',(2.67881618920555E-015,-15.0,22.0));
#566=AXIS2_PLACEMENT_3D('',#650,#651,#652);
#567=CARTESIAN_POINT('',(-2.67881618920555E-015,15.0,22.0));
#568=AXIS2_PLACEMENT_3D('',#653,#654,#655);
#569=AXIS2_PLACEMENT_3D('',#656,#657,#658);
#570=CARTESIAN_POINT('',(-17.75,7.35229073212243,22.0));
#571=CARTESIAN_POINT('',(11.6619273169694,36.7642180490918,22.0));
#572=VECTOR('',#659,1.0);
#573=CARTESIAN_POINT('',(-17.75,1.05723015769391E-014,22.0));
#574=VECTOR('',#660,1.0);
#575=COLOUR_RGB('',0.509803950786591,0.509803950786591,0.588235318660736);
#576=AXIS2_PLACEMENT_3D('',#661,#662,#663);
#577=CARTESIAN_POINT('',(2.36628763379824E-015,-13.25,20.9896370289182));
#578=AXIS2_PLACEMENT_3D('',#664,#665,#666);
#579=AXIS2_PLACEMENT_3D('',#667,#668,#669);
#580=COLOUR_RGB('',0.509803950786591,0.509803950786591,0.588235318660736);
#581=CARTESIAN_POINT('',(-27.0,-1.89770926787759,-16.0));
#582=CARTESIAN_POINT('',(-20.9999999999999,4.10229073212253,-22.0));
#583=CARTESIAN_POINT('',(-7.68371512202014,17.4185756101023,-35.3162848779794));
#584=VECTOR('',#670,1.0);
#585=CARTESIAN_POINT('',(-20.9999999999998,7.87816759852984E-015,-22.0));
#586=VECTOR('',#671,1.0);
#587=CARTESIAN_POINT('',(-27.0,8.24554950467655E-015,-16.0));
#588=VECTOR('',#672,1.0);
#589=COLOUR_RGB('',0.509803950786591,0.509803950786591,0.588235318660736);
#590=CARTESIAN_POINT('',(21.0,46.1022907321224,-22.0));
#591=CARTESIAN_POINT('',(21.0,7.87816759852984E-015,-22.0));
#592=VECTOR('',#673,1.0);
#593=CARTESIAN_POINT('',(1.97442731696947,27.0767180490919,-22.0));
#594=VECTOR('',#674,1.0);
#595=COLOUR_RGB('',0.509803950786591,0.509803950786591,0.588235318660736);
#596=CARTESIAN_POINT('',(-27.0,-1.89770926787758,-19.0));
#597=VECTOR('',#675,1.0);
#598=COLOUR_RGB('',0.509803950786591,0.509803950786591,0.588235318660736);
#599=CARTESIAN_POINT('',(-2.50964621707402E-015,14.0527347146108,21.4530961324865));
#600=VECTOR('',#676,1.0);
#601=CARTESIAN_POINT('',(2.50964621707401E-015,-14.0527347146108,21.4530961324865));
#602=VECTOR('',#677,1.0);
#603=COLOUR_RGB('',0.509803950786591,0.509803950786591,0.588235318660736);
#604=CARTESIAN_POINT('',(-17.75,7.35229073212242,1.4210854715202E-014));
#605=VECTOR('',#678,1.0);
#606=COLOUR_RGB('',0.509803950786591,0.509803950786591,0.588235318660736);
#607=CARTESIAN_POINT('',(27.0,52.1022907321224,2.48689957516035E-014));
#608=CARTESIAN_POINT('',(13.9744273169694,39.0767180490918,2.66453525910038E-014));
#609=VECTOR('',#679,1.0);
#610=CARTESIAN_POINT('',(27.0,52.1022907321224,-16.0));
#611=CARTESIAN_POINT('',(27.0,52.1022907321224,-19.0));
#612=VECTOR('',#680,1.0);
#613=CARTESIAN_POINT('',(15.3162848779796,40.418575610102,-27.6837151220204));
#614=VECTOR('',#681,1.0);
#615=COLOUR_RGB('',0.509803950786591,0.509803950786591,0.588235318660736);
#616=CARTESIAN_POINT('',(27.0,9.22523458773445E-015,2.8421709430404E-014));
#617=VECTOR('',#682,1.0);
#618=COLOUR_RGB('',0.509803950786591,0.509803950786591,0.588235318660736);
#619=CARTESIAN_POINT('',(27.0,8.24554950467655E-015,-16.0));
#620=VECTOR('',#683,1.0);
#621=COLOUR_RGB('',0.509803950786591,0.509803950786591,0.588235318660736);
#622=COLOUR_RGB('',0.509803950786591,0.509803950786591,0.588235318660736);
#623=DIRECTION('',(0.0,0.0,-1.0));
#624=DIRECTION('',(0.0,-1.0,6.12303176911189E-017));
#625=DIRECTION('',(0.0,0.0,1.0));
#626=DIRECTION('',(0.0,-1.0,6.12303176911189E-017));
#627=DIRECTION('',(-0.0,-0.0,1.0));
#628=CARTESIAN_POINT('',(-2.8421709430404E-014,0.0,20.9896370289182));
#629=DIRECTION('',(0.0,0.0,1.0));
#630=DIRECTION('',(1.0,0.0,0.0));
#631=CARTESIAN_POINT('',(-2.8421709430404E-014,0.0,20.9896370289182));
#632=DIRECTION('',(0.0,0.0,1.0));
#633=DIRECTION('',(1.0,0.0,0.0));
#634=DIRECTION('',(-0.0,-0.0,-1.0));
#635=CARTESIAN_POINT('',(-2.8421709430404E-014,0.0,-22.0));
#636=DIRECTION('',(-0.0,6.12303176911189E-017,1.0));
#637=DIRECTION('',(1.0,0.0,0.0));
#638=DIRECTION('',(0.707106781186547,0.707106781186548,-4.32963728535968E-017));
#639=DIRECTION('',(0.0,0.0,1.0));
#640=DIRECTION('',(-0.577350269189629,-0.57735026918963,0.577350269189618));
#641=DIRECTION('',(-0.707106781186547,-0.707106781186548,4.32963728535968E-017));
#642=DIRECTION('',(-0.577350269189626,-0.577350269189626,-0.577350269189626));
#643=DIRECTION('',(0.0,0.0,-1.0));
#644=DIRECTION('',(0.707106781186547,0.707106781186548,-4.32963728535968E-017));
#645=DIRECTION('',(0.707106781186547,0.707106781186548,-4.32963728535968E-017));
#646=DIRECTION('',(0.0,0.0,1.0));
#647=DIRECTION('',(-0.707106781186547,-0.707106781186548,4.32963728535968E-017));
#648=DIRECTION('',(0.0,-1.0,6.12303176911189E-017));
#649=DIRECTION('',(0.0,-1.0,6.12303176911189E-017));
#650=CARTESIAN_POINT('',(0.0,1.05723015769391E-014,22.0));
#651=DIRECTION('',(4.82000448340893E-049,-6.12303176911189E-017,-1.0));
#652=DIRECTION('',(-5.61271105647992E-017,1.0,-6.12303176911189E-017));
#653=CARTESIAN_POINT('',(0.0,1.05723015769391E-014,22.0));
#654=DIRECTION('',(4.82000448340893E-049,-6.12303176911189E-017,-1.0));
#655=DIRECTION('',(-5.61271105647992E-017,1.0,-6.12303176911189E-017));
#656=CARTESIAN_POINT('',(0.0,1.05723015769391E-014,22.0));
#657=DIRECTION('',(4.82000448340893E-049,-6.12303176911189E-017,-1.0));
#658=DIRECTION('',(-5.61271105647992E-017,1.0,-6.12303176911189E-017));
#659=DIRECTION('',(-0.707106781186547,-0.707106781186548,4.32963728535968E-017));
#660=DIRECTION('',(0.0,-1.0,6.12303176911189E-017));
#661=CARTESIAN_POINT('',(-2.8421709430404E-014,0.0,-22.0));
#662=DIRECTION('',(-0.0,6.12303176911189E-017,1.0));
#663=DIRECTION('',(1.0,0.0,0.0));
#664=CARTESIAN_POINT('',(-2.8421709430404E-014,0.0,20.9896370289182));
#665=DIRECTION('',(0.0,0.0,1.0));
#666=DIRECTION('',(1.0,0.0,0.0));
#667=CARTESIAN_POINT('',(-2.8421709430404E-014,0.0,20.9896370289182));
#668=DIRECTION('',(0.0,0.0,1.0));
#669=DIRECTION('',(1.0,0.0,0.0));
#670=DIRECTION('',(0.577350269189629,0.57735026918963,-0.577350269189618));
#671=DIRECTION('',(0.0,-1.0,6.12303176911189E-017));
#672=DIRECTION('',(0.0,-1.0,6.12303176911189E-017));
#673=DIRECTION('',(0.0,-1.0,6.12303176911189E-017));
#674=DIRECTION('',(0.707106781186547,0.707106781186548,-4.32963728535968E-017));
#675=DIRECTION('',(0.0,0.0,-1.0));
#676=DIRECTION('',(-1.54661524794735E-016,0.866025403784439,0.5));
#677=DIRECTION('',(-1.54661524794735E-016,0.866025403784439,-0.5));
#678=DIRECTION('',(0.0,0.0,-1.0));
#679=DIRECTION('',(-0.707106781186547,-0.707106781186548,4.32963728535968E-017));
#680=DIRECTION('',(0.0,0.0,1.0));
#681=DIRECTION('',(0.577350269189626,0.577350269189626,0.577350269189626));
#682=DIRECTION('',(0.0,1.0,-6.12303176911189E-017));
#683=DIRECTION('',(0.0,1.0,-6.12303176911189E-017));
ENDSEC;
END-ISO-10303-21;
