ISO-10303-21;
HEADER;
FILE_DESCRIPTION(('STEP AP214'),'1');
FILE_NAME('C:/temp/halder/09_10_2014/CAD/Temp/HALDERN_EH_23020_0720.stp','2014-10-09T11:17:38',('TraceParts'),('TraceParts S.A.'),'Spatial InterOp 3D',' ',' ');
FILE_SCHEMA(('automotive_design'));
ENDSEC;
DATA;
#1=MECHANICAL_DESIGN_GEOMETRIC_PRESENTATION_REPRESENTATION(' ',(#10,#11,#12,#13,#14,#15,#16,#17,#18,#19,#20,#21,#22,#23,#24,#25,#26),#6);
#2=PRODUCT_DEFINITION_CONTEXT('',#27,'design');
#3=APPLICATION_PROTOCOL_DEFINITION('INTERNATIONAL STANDARD','automotive_design',1994,#27);
#4=PRODUCT_CATEGORY_RELATIONSHIP('NONE','NONE',#28,#29);
#5=SHAPE_DEFINITION_REPRESENTATION(#30,#31);
#6= (GEOMETRIC_REPRESENTATION_CONTEXT(3)GLOBAL_UNCERTAINTY_ASSIGNED_CONTEXT((#34))GLOBAL_UNIT_ASSIGNED_CONTEXT((#36,#37,#38))REPRESENTATION_CONTEXT('NONE','WORKSPACE'));
#10=STYLED_ITEM('',(#40),#41);
#11=STYLED_ITEM('',(#42),#43);
#12=STYLED_ITEM('',(#44),#45);
#13=STYLED_ITEM('',(#46),#47);
#14=STYLED_ITEM('',(#48),#49);
#15=STYLED_ITEM('',(#50),#51);
#16=STYLED_ITEM('',(#52),#53);
#17=STYLED_ITEM('',(#54),#55);
#18=STYLED_ITEM('',(#56),#57);
#19=STYLED_ITEM('',(#58),#59);
#20=STYLED_ITEM('',(#60),#61);
#21=STYLED_ITEM('',(#62),#63);
#22=STYLED_ITEM('',(#64),#65);
#23=STYLED_ITEM('',(#66),#67);
#24=STYLED_ITEM('',(#68),#69);
#25=STYLED_ITEM('',(#70),#71);
#26=STYLED_ITEM('',(#72),#73);
#27=APPLICATION_CONTEXT(' ');
#28=PRODUCT_CATEGORY('part','NONE');
#29=PRODUCT_RELATED_PRODUCT_CATEGORY('detail',' ',(#74));
#30=PRODUCT_DEFINITION_SHAPE('NONE','NONE',#75);
#31=ADVANCED_BREP_SHAPE_REPRESENTATION('1',(#61,#76),#6);
#34=UNCERTAINTY_MEASURE_WITH_UNIT(LENGTH_MEASURE(1.0E-006),#36,'','');
#36= (CONVERSION_BASED_UNIT('MILLIMETRE',#79)LENGTH_UNIT()NAMED_UNIT(#82));
#37= (NAMED_UNIT(#84)PLANE_ANGLE_UNIT()SI_UNIT($,.RADIAN.));
#38= (NAMED_UNIT(#84)SOLID_ANGLE_UNIT()SI_UNIT($,.STERADIAN.));
#40=PRESENTATION_STYLE_ASSIGNMENT((#90));
#41=ADVANCED_FACE('',(#91),#92,.T.);
#42=PRESENTATION_STYLE_ASSIGNMENT((#93));
#43=ADVANCED_FACE('',(#94),#95,.F.);
#44=PRESENTATION_STYLE_ASSIGNMENT((#96));
#45=ADVANCED_FACE('',(#97,#98),#99,.T.);
#46=PRESENTATION_STYLE_ASSIGNMENT((#100));
#47=ADVANCED_FACE('',(#101),#102,.F.);
#48=PRESENTATION_STYLE_ASSIGNMENT((#103));
#49=ADVANCED_FACE('',(#104),#105,.T.);
#50=PRESENTATION_STYLE_ASSIGNMENT((#106));
#51=ADVANCED_FACE('',(#107),#108,.F.);
#52=PRESENTATION_STYLE_ASSIGNMENT((#109));
#53=ADVANCED_FACE('',(#110),#111,.T.);
#54=PRESENTATION_STYLE_ASSIGNMENT((#112));
#55=ADVANCED_FACE('',(#113,#114),#115,.T.);
#56=PRESENTATION_STYLE_ASSIGNMENT((#116));
#57=ADVANCED_FACE('',(#117),#118,.F.);
#58=PRESENTATION_STYLE_ASSIGNMENT((#119));
#59=ADVANCED_FACE('',(#120),#121,.F.);
#60=PRESENTATION_STYLE_ASSIGNMENT((#122));
#61=MANIFOLD_SOLID_BREP('1',#123);
#62=PRESENTATION_STYLE_ASSIGNMENT((#124));
#63=ADVANCED_FACE('',(#125),#126,.T.);
#64=PRESENTATION_STYLE_ASSIGNMENT((#127));
#65=ADVANCED_FACE('',(#128),#129,.T.);
#66=PRESENTATION_STYLE_ASSIGNMENT((#130));
#67=ADVANCED_FACE('',(#131),#132,.T.);
#68=PRESENTATION_STYLE_ASSIGNMENT((#133));
#69=ADVANCED_FACE('',(#134),#135,.T.);
#70=PRESENTATION_STYLE_ASSIGNMENT((#136));
#71=ADVANCED_FACE('',(#137),#138,.T.);
#72=PRESENTATION_STYLE_ASSIGNMENT((#139));
#73=ADVANCED_FACE('',(#140),#141,.F.);
#74=PRODUCT('1','1','PART-1-DESC',(#142));
#75=PRODUCT_DEFINITION('NONE','NONE',#143,#2);
#76=AXIS2_PLACEMENT_3D('',#144,#145,#146);
#79=LENGTH_MEASURE_WITH_UNIT(LENGTH_MEASURE(1.0),#147);
#82=DIMENSIONAL_EXPONENTS(1.0,0.0,0.0,0.0,0.0,0.0,0.0);
#84=DIMENSIONAL_EXPONENTS(0.0,0.0,0.0,0.0,0.0,0.0,0.0);
#90=SURFACE_STYLE_USAGE(.BOTH.,#148);
#91=FACE_OUTER_BOUND('',#149,.T.);
#92=PLANE('',#150);
#93=SURFACE_STYLE_USAGE(.BOTH.,#151);
#94=FACE_OUTER_BOUND('',#152,.T.);
#95=CONICAL_SURFACE('',#153,9.3233676532934,1.0471975511966);
#96=SURFACE_STYLE_USAGE(.BOTH.,#154);
#97=FACE_BOUND('',#155,.T.);
#98=FACE_OUTER_BOUND('',#156,.T.);
#99=PLANE('',#157);
#100=SURFACE_STYLE_USAGE(.BOTH.,#158);
#101=FACE_OUTER_BOUND('',#159,.T.);
#102=CONICAL_SURFACE('',#160,9.3233676532934,1.0471975511966);
#103=SURFACE_STYLE_USAGE(.BOTH.,#161);
#104=FACE_OUTER_BOUND('',#162,.T.);
#105=PLANE('',#163);
#106=SURFACE_STYLE_USAGE(.BOTH.,#164);
#107=FACE_OUTER_BOUND('',#165,.T.);
#108=PLANE('',#166);
#109=SURFACE_STYLE_USAGE(.BOTH.,#167);
#110=FACE_OUTER_BOUND('',#168,.T.);
#111=PLANE('',#169);
#112=SURFACE_STYLE_USAGE(.BOTH.,#170);
#113=FACE_OUTER_BOUND('',#171,.T.);
#114=FACE_BOUND('',#172,.T.);
#115=PLANE('',#173);
#116=SURFACE_STYLE_USAGE(.BOTH.,#174);
#117=FACE_OUTER_BOUND('',#175,.T.);
#118=PLANE('',#176);
#119=SURFACE_STYLE_USAGE(.BOTH.,#177);
#120=FACE_OUTER_BOUND('',#178,.T.);
#121=CYLINDRICAL_SURFACE('',#179,8.75);
#122=SURFACE_STYLE_USAGE(.BOTH.,#180);
#123=CLOSED_SHELL('',(#59,#43,#69,#57,#51,#65,#63,#45,#71,#53,#47,#73,#55,#67,#49,#41));
#124=SURFACE_STYLE_USAGE(.BOTH.,#181);
#125=FACE_OUTER_BOUND('',#182,.T.);
#126=PLANE('',#183);
#127=SURFACE_STYLE_USAGE(.BOTH.,#184);
#128=FACE_OUTER_BOUND('',#185,.T.);
#129=PLANE('',#186);
#130=SURFACE_STYLE_USAGE(.BOTH.,#187);
#131=FACE_OUTER_BOUND('',#188,.T.);
#132=PLANE('',#189);
#133=SURFACE_STYLE_USAGE(.BOTH.,#190);
#134=FACE_OUTER_BOUND('',#191,.T.);
#135=PLANE('',#192);
#136=SURFACE_STYLE_USAGE(.BOTH.,#193);
#137=FACE_OUTER_BOUND('',#194,.T.);
#138=PLANE('',#195);
#139=SURFACE_STYLE_USAGE(.BOTH.,#196);
#140=FACE_OUTER_BOUND('',#197,.T.);
#141=CYLINDRICAL_SURFACE('',#198,8.75);
#142=PRODUCT_CONTEXT('',#27,'mechanical');
#143=PRODUCT_DEFINITION_FORMATION_WITH_SPECIFIED_SOURCE(' ','NONE',#74,.NOT_KNOWN.);
#144=CARTESIAN_POINT('',(0.0,0.0,0.0));
#145=DIRECTION('',(0.0,0.0,1.0));
#146=DIRECTION('',(1.0,0.0,0.0));
#147= (NAMED_UNIT(#82)LENGTH_UNIT()SI_UNIT(.MILLI.,.METRE.));
#148=SURFACE_SIDE_STYLE('',(#200));
#149=EDGE_LOOP('',(#201,#202,#203,#204));
#150=AXIS2_PLACEMENT_3D('',#205,#206,#207);
#151=SURFACE_SIDE_STYLE('',(#208));
#152=EDGE_LOOP('',(#209,#210,#211,#212,#213,#214));
#153=AXIS2_PLACEMENT_3D('',#215,#216,#217);
#154=SURFACE_SIDE_STYLE('',(#218));
#155=EDGE_LOOP('',(#219,#220,#221));
#156=EDGE_LOOP('',(#222,#223,#224,#225));
#157=AXIS2_PLACEMENT_3D('',#226,#227,#228);
#158=SURFACE_SIDE_STYLE('',(#229));
#159=EDGE_LOOP('',(#230,#231,#232,#233,#234));
#160=AXIS2_PLACEMENT_3D('',#235,#236,#237);
#161=SURFACE_SIDE_STYLE('',(#238));
#162=EDGE_LOOP('',(#239,#240,#241,#242));
#163=AXIS2_PLACEMENT_3D('',#243,#244,#245);
#164=SURFACE_SIDE_STYLE('',(#246));
#165=EDGE_LOOP('',(#247,#248,#249,#250,#251,#252,#253,#254,#255,#256));
#166=AXIS2_PLACEMENT_3D('',#257,#258,#259);
#167=SURFACE_SIDE_STYLE('',(#260));
#168=EDGE_LOOP('',(#261,#262,#263,#264));
#169=AXIS2_PLACEMENT_3D('',#265,#266,#267);
#170=SURFACE_SIDE_STYLE('',(#268));
#171=EDGE_LOOP('',(#269,#270,#271,#272));
#172=EDGE_LOOP('',(#273,#274));
#173=AXIS2_PLACEMENT_3D('',#275,#276,#277);
#174=SURFACE_SIDE_STYLE('',(#278));
#175=EDGE_LOOP('',(#279,#280,#281,#282,#283,#284,#285,#286,#287,#288));
#176=AXIS2_PLACEMENT_3D('',#289,#290,#291);
#177=SURFACE_SIDE_STYLE('',(#292));
#178=EDGE_LOOP('',(#293,#294,#295,#296,#297));
#179=AXIS2_PLACEMENT_3D('',#298,#299,#300);
#180=SURFACE_SIDE_STYLE('',(#301));
#181=SURFACE_SIDE_STYLE('',(#302));
#182=EDGE_LOOP('',(#303,#304,#305,#306));
#183=AXIS2_PLACEMENT_3D('',#307,#308,#309);
#184=SURFACE_SIDE_STYLE('',(#310));
#185=EDGE_LOOP('',(#311,#312,#313,#314));
#186=AXIS2_PLACEMENT_3D('',#315,#316,#317);
#187=SURFACE_SIDE_STYLE('',(#318));
#188=EDGE_LOOP('',(#319,#320,#321,#322));
#189=AXIS2_PLACEMENT_3D('',#323,#324,#325);
#190=SURFACE_SIDE_STYLE('',(#326));
#191=EDGE_LOOP('',(#327,#328,#329,#330));
#192=AXIS2_PLACEMENT_3D('',#331,#332,#333);
#193=SURFACE_SIDE_STYLE('',(#334));
#194=EDGE_LOOP('',(#335,#336,#337,#338));
#195=AXIS2_PLACEMENT_3D('',#339,#340,#341);
#196=SURFACE_SIDE_STYLE('',(#342));
#197=EDGE_LOOP('',(#343,#344,#345,#346,#347));
#198=AXIS2_PLACEMENT_3D('',#348,#349,#350);
#200=SURFACE_STYLE_FILL_AREA(#351);
#201=ORIENTED_EDGE('',*,*,#352,.T.);
#202=ORIENTED_EDGE('',*,*,#353,.T.);
#203=ORIENTED_EDGE('',*,*,#354,.T.);
#204=ORIENTED_EDGE('',*,*,#355,.F.);
#205=CARTESIAN_POINT('',(-17.5,8.52108593428659E-015,-11.5));
#206=DIRECTION('',(-1.0,0.0,0.0));
#207=DIRECTION('',(0.0,-1.0,6.12303176911189E-017));
#208=SURFACE_STYLE_FILL_AREA(#356);
#209=ORIENTED_EDGE('',*,*,#357,.F.);
#210=ORIENTED_EDGE('',*,*,#358,.F.);
#211=ORIENTED_EDGE('',*,*,#359,.F.);
#212=ORIENTED_EDGE('',*,*,#360,.F.);
#213=ORIENTED_EDGE('',*,*,#361,.F.);
#214=ORIENTED_EDGE('',*,*,#362,.F.);
#215=CARTESIAN_POINT('',(0.0,1.00824590354101E-014,13.6093461324865));
#216=DIRECTION('',(-0.0,-0.0,1.0));
#217=DIRECTION('',(-5.57054947231547E-017,1.0,0.0));
#218=SURFACE_STYLE_FILL_AREA(#363);
#219=ORIENTED_EDGE('',*,*,#361,.T.);
#220=ORIENTED_EDGE('',*,*,#364,.T.);
#221=ORIENTED_EDGE('',*,*,#362,.T.);
#222=ORIENTED_EDGE('',*,*,#365,.F.);
#223=ORIENTED_EDGE('',*,*,#366,.T.);
#224=ORIENTED_EDGE('',*,*,#367,.T.);
#225=ORIENTED_EDGE('',*,*,#368,.T.);
#226=CARTESIAN_POINT('',(-10.8,1.00824590354101E-014,14.0));
#227=DIRECTION('',(0.0,6.12303176911189E-017,1.0));
#228=DIRECTION('',(0.0,-1.0,6.12303176911189E-017));
#229=SURFACE_STYLE_FILL_AREA(#369);
#230=ORIENTED_EDGE('',*,*,#357,.T.);
#231=ORIENTED_EDGE('',*,*,#364,.F.);
#232=ORIENTED_EDGE('',*,*,#360,.T.);
#233=ORIENTED_EDGE('',*,*,#370,.F.);
#234=ORIENTED_EDGE('',*,*,#371,.F.);
#235=CARTESIAN_POINT('',(0.0,1.00824590354101E-014,13.6093461324865));
#236=DIRECTION('',(-0.0,-0.0,1.0));
#237=DIRECTION('',(-5.57054947231547E-017,1.0,0.0));
#238=SURFACE_STYLE_FILL_AREA(#372);
#239=ORIENTED_EDGE('',*,*,#373,.T.);
#240=ORIENTED_EDGE('',*,*,#374,.T.);
#241=ORIENTED_EDGE('',*,*,#375,.T.);
#242=ORIENTED_EDGE('',*,*,#353,.F.);
#243=CARTESIAN_POINT('',(-14.9999999999999,8.36801014005879E-015,-14.0));
#244=DIRECTION('',(-0.707106781186543,-4.3296372853597E-017,-0.707106781186552));
#245=DIRECTION('',(1.9789210235981E-034,-1.0,6.12303176911189E-017));
#246=SURFACE_STYLE_FILL_AREA(#376);
#247=ORIENTED_EDGE('',*,*,#377,.F.);
#248=ORIENTED_EDGE('',*,*,#354,.F.);
#249=ORIENTED_EDGE('',*,*,#375,.F.);
#250=ORIENTED_EDGE('',*,*,#378,.F.);
#251=ORIENTED_EDGE('',*,*,#379,.F.);
#252=ORIENTED_EDGE('',*,*,#380,.F.);
#253=ORIENTED_EDGE('',*,*,#381,.F.);
#254=ORIENTED_EDGE('',*,*,#382,.F.);
#255=ORIENTED_EDGE('',*,*,#368,.F.);
#256=ORIENTED_EDGE('',*,*,#383,.F.);
#257=CARTESIAN_POINT('',(-17.5,-32.7735064736294,-14.0));
#258=DIRECTION('',(-0.707106781186548,0.707106781186547,0.0));
#259=DIRECTION('',(0.0,0.0,1.0));
#260=SURFACE_STYLE_FILL_AREA(#384);
#261=ORIENTED_EDGE('',*,*,#381,.T.);
#262=ORIENTED_EDGE('',*,*,#385,.T.);
#263=ORIENTED_EDGE('',*,*,#386,.T.);
#264=ORIENTED_EDGE('',*,*,#387,.T.);
#265=CARTESIAN_POINT('',(10.8,9.22523458773445E-015,2.8421709430404E-014));
#266=DIRECTION('',(0.0,6.12303176911189E-017,1.0));
#267=DIRECTION('',(0.0,-1.0,6.12303176911189E-017));
#268=SURFACE_STYLE_FILL_AREA(#388);
#269=ORIENTED_EDGE('',*,*,#389,.T.);
#270=ORIENTED_EDGE('',*,*,#378,.T.);
#271=ORIENTED_EDGE('',*,*,#374,.F.);
#272=ORIENTED_EDGE('',*,*,#390,.T.);
#273=ORIENTED_EDGE('',*,*,#391,.T.);
#274=ORIENTED_EDGE('',*,*,#392,.T.);
#275=CARTESIAN_POINT('',(15.0,8.36801014005879E-015,-14.0));
#276=DIRECTION('',(0.0,-6.12303176911189E-017,-1.0));
#277=DIRECTION('',(0.0,1.0,-6.12303176911189E-017));
#278=SURFACE_STYLE_FILL_AREA(#393);
#279=ORIENTED_EDGE('',*,*,#373,.F.);
#280=ORIENTED_EDGE('',*,*,#352,.F.);
#281=ORIENTED_EDGE('',*,*,#394,.F.);
#282=ORIENTED_EDGE('',*,*,#395,.F.);
#283=ORIENTED_EDGE('',*,*,#366,.F.);
#284=ORIENTED_EDGE('',*,*,#396,.F.);
#285=ORIENTED_EDGE('',*,*,#386,.F.);
#286=ORIENTED_EDGE('',*,*,#397,.F.);
#287=ORIENTED_EDGE('',*,*,#398,.F.);
#288=ORIENTED_EDGE('',*,*,#390,.F.);
#289=CARTESIAN_POINT('',(17.5,32.7735064736294,-14.0));
#290=DIRECTION('',(0.707106781186548,-0.707106781186548,0.0));
#291=DIRECTION('',(0.0,0.0,-1.0));
#292=SURFACE_STYLE_FILL_AREA(#399);
#293=ORIENTED_EDGE('',*,*,#400,.F.);
#294=ORIENTED_EDGE('',*,*,#392,.F.);
#295=ORIENTED_EDGE('',*,*,#401,.F.);
#296=ORIENTED_EDGE('',*,*,#370,.T.);
#297=ORIENTED_EDGE('',*,*,#359,.T.);
#298=CARTESIAN_POINT('',(0.0,0.0,14.0));
#299=DIRECTION('',(0.0,0.0,-1.0));
#300=DIRECTION('',(1.0,0.0,0.0));
#301=SURFACE_STYLE_FILL_AREA(#402);
#302=SURFACE_STYLE_FILL_AREA(#403);
#303=ORIENTED_EDGE('',*,*,#383,.T.);
#304=ORIENTED_EDGE('',*,*,#367,.F.);
#305=ORIENTED_EDGE('',*,*,#395,.T.);
#306=ORIENTED_EDGE('',*,*,#404,.T.);
#307=CARTESIAN_POINT('',(-10.8,9.22523458773445E-015,0.0));
#308=DIRECTION('',(-1.0,0.0,0.0));
#309=DIRECTION('',(0.0,-1.0,6.12303176911189E-017));
#310=SURFACE_STYLE_FILL_AREA(#405);
#311=ORIENTED_EDGE('',*,*,#394,.T.);
#312=ORIENTED_EDGE('',*,*,#355,.T.);
#313=ORIENTED_EDGE('',*,*,#377,.T.);
#314=ORIENTED_EDGE('',*,*,#404,.F.);
#315=CARTESIAN_POINT('',(-17.5,9.22523458773445E-015,0.0));
#316=DIRECTION('',(0.0,6.12303176911189E-017,1.0));
#317=DIRECTION('',(0.0,-1.0,6.12303176911189E-017));
#318=SURFACE_STYLE_FILL_AREA(#406);
#319=ORIENTED_EDGE('',*,*,#379,.T.);
#320=ORIENTED_EDGE('',*,*,#389,.F.);
#321=ORIENTED_EDGE('',*,*,#398,.T.);
#322=ORIENTED_EDGE('',*,*,#407,.F.);
#323=CARTESIAN_POINT('',(17.5,8.52108593428659E-015,-11.5));
#324=DIRECTION('',(0.707106781186548,-4.32963728535968E-017,-0.707106781186548));
#325=DIRECTION('',(-1.07031965039769E-033,1.0,-6.12303176911189E-017));
#326=SURFACE_STYLE_FILL_AREA(#408);
#327=ORIENTED_EDGE('',*,*,#397,.T.);
#328=ORIENTED_EDGE('',*,*,#385,.F.);
#329=ORIENTED_EDGE('',*,*,#380,.T.);
#330=ORIENTED_EDGE('',*,*,#407,.T.);
#331=CARTESIAN_POINT('',(17.5,8.52108593428659E-015,-11.5));
#332=DIRECTION('',(1.0,0.0,0.0));
#333=DIRECTION('',(0.0,1.0,-6.12303176911189E-017));
#334=SURFACE_STYLE_FILL_AREA(#409);
#335=ORIENTED_EDGE('',*,*,#382,.T.);
#336=ORIENTED_EDGE('',*,*,#387,.F.);
#337=ORIENTED_EDGE('',*,*,#396,.T.);
#338=ORIENTED_EDGE('',*,*,#365,.T.);
#339=CARTESIAN_POINT('',(10.8,1.00824590354101E-014,14.0));
#340=DIRECTION('',(1.0,0.0,0.0));
#341=DIRECTION('',(0.0,1.0,-6.12303176911189E-017));
#342=SURFACE_STYLE_FILL_AREA(#410);
#343=ORIENTED_EDGE('',*,*,#400,.T.);
#344=ORIENTED_EDGE('',*,*,#358,.T.);
#345=ORIENTED_EDGE('',*,*,#371,.T.);
#346=ORIENTED_EDGE('',*,*,#401,.T.);
#347=ORIENTED_EDGE('',*,*,#391,.F.);
#348=CARTESIAN_POINT('',(0.0,0.0,14.0));
#349=DIRECTION('',(0.0,0.0,-1.0));
#350=DIRECTION('',(1.0,0.0,0.0));
#351=FILL_AREA_STYLE('',(#411));
#352=EDGE_CURVE('',#412,#413,#414,.T.);
#353=EDGE_CURVE('',#413,#415,#416,.T.);
#354=EDGE_CURVE('',#415,#417,#418,.T.);
#355=EDGE_CURVE('',#412,#417,#419,.T.);
#356=FILL_AREA_STYLE('',(#420));
#357=EDGE_CURVE('',#421,#422,#423,.T.);
#358=EDGE_CURVE('',#424,#421,#425,.T.);
#359=EDGE_CURVE('',#426,#424,#427,.T.);
#360=EDGE_CURVE('',#428,#426,#429,.T.);
#361=EDGE_CURVE('',#430,#428,#431,.T.);
#362=EDGE_CURVE('',#422,#430,#432,.T.);
#363=FILL_AREA_STYLE('',(#433));
#364=EDGE_CURVE('',#428,#422,#434,.T.);
#365=EDGE_CURVE('',#435,#436,#437,.T.);
#366=EDGE_CURVE('',#435,#438,#439,.T.);
#367=EDGE_CURVE('',#438,#440,#441,.T.);
#368=EDGE_CURVE('',#440,#436,#442,.T.);
#369=FILL_AREA_STYLE('',(#443));
#370=EDGE_CURVE('',#444,#426,#445,.T.);
#371=EDGE_CURVE('',#421,#444,#446,.T.);
#372=FILL_AREA_STYLE('',(#447));
#373=EDGE_CURVE('',#413,#448,#449,.T.);
#374=EDGE_CURVE('',#448,#450,#451,.T.);
#375=EDGE_CURVE('',#450,#415,#452,.T.);
#376=FILL_AREA_STYLE('',(#453));
#377=EDGE_CURVE('',#417,#454,#455,.T.);
#378=EDGE_CURVE('',#456,#450,#457,.T.);
#379=EDGE_CURVE('',#458,#456,#459,.T.);
#380=EDGE_CURVE('',#460,#458,#461,.T.);
#381=EDGE_CURVE('',#462,#460,#463,.T.);
#382=EDGE_CURVE('',#436,#462,#464,.T.);
#383=EDGE_CURVE('',#454,#440,#465,.T.);
#384=FILL_AREA_STYLE('',(#466));
#385=EDGE_CURVE('',#460,#467,#468,.T.);
#386=EDGE_CURVE('',#467,#469,#470,.T.);
#387=EDGE_CURVE('',#469,#462,#471,.T.);
#388=FILL_AREA_STYLE('',(#472));
#389=EDGE_CURVE('',#473,#456,#474,.T.);
#390=EDGE_CURVE('',#448,#473,#475,.T.);
#391=EDGE_CURVE('',#476,#477,#478,.T.);
#392=EDGE_CURVE('',#477,#476,#479,.T.);
#393=FILL_AREA_STYLE('',(#480));
#394=EDGE_CURVE('',#481,#412,#482,.T.);
#395=EDGE_CURVE('',#438,#481,#483,.T.);
#396=EDGE_CURVE('',#469,#435,#484,.T.);
#397=EDGE_CURVE('',#485,#467,#486,.T.);
#398=EDGE_CURVE('',#473,#485,#487,.T.);
#399=FILL_AREA_STYLE('',(#488));
#400=EDGE_CURVE('',#476,#424,#489,.T.);
#401=EDGE_CURVE('',#444,#477,#490,.T.);
#402=FILL_AREA_STYLE('',(#491));
#403=FILL_AREA_STYLE('',(#492));
#404=EDGE_CURVE('',#481,#454,#493,.T.);
#405=FILL_AREA_STYLE('',(#494));
#406=FILL_AREA_STYLE('',(#495));
#407=EDGE_CURVE('',#458,#485,#496,.T.);
#408=FILL_AREA_STYLE('',(#497));
#409=FILL_AREA_STYLE('',(#498));
#410=FILL_AREA_STYLE('',(#499));
#411=FILL_AREA_STYLE_COLOUR('',#500);
#412=VERTEX_POINT('',#501);
#413=VERTEX_POINT('',#502);
#414=LINE('',#503,#504);
#415=VERTEX_POINT('',#505);
#416=LINE('',#506,#507);
#417=VERTEX_POINT('',#508);
#418=LINE('',#509,#510);
#419=LINE('',#511,#512);
#420=FILL_AREA_STYLE_COLOUR('',#513);
#421=VERTEX_POINT('',#514);
#422=VERTEX_POINT('',#515);
#423=LINE('',#516,#517);
#424=VERTEX_POINT('',#518);
#425=CIRCLE('',#519,8.75);
#426=VERTEX_POINT('',#520);
#427=CIRCLE('',#521,8.75);
#428=VERTEX_POINT('',#522);
#429=LINE('',#523,#524);
#430=VERTEX_POINT('',#525);
#431=CIRCLE('',#526,10.0);
#432=CIRCLE('',#527,10.0);
#433=FILL_AREA_STYLE_COLOUR('',#528);
#434=CIRCLE('',#529,10.0);
#435=VERTEX_POINT('',#530);
#436=VERTEX_POINT('',#531);
#437=LINE('',#532,#533);
#438=VERTEX_POINT('',#534);
#439=LINE('',#535,#536);
#440=VERTEX_POINT('',#537);
#441=LINE('',#538,#539);
#442=LINE('',#540,#541);
#443=FILL_AREA_STYLE_COLOUR('',#542);
#444=VERTEX_POINT('',#543);
#445=CIRCLE('',#544,8.75);
#446=CIRCLE('',#545,8.75);
#447=FILL_AREA_STYLE_COLOUR('',#546);
#448=VERTEX_POINT('',#547);
#449=LINE('',#548,#549);
#450=VERTEX_POINT('',#550);
#451=LINE('',#551,#552);
#452=LINE('',#553,#554);
#453=FILL_AREA_STYLE_COLOUR('',#555);
#454=VERTEX_POINT('',#556);
#455=LINE('',#557,#558);
#456=VERTEX_POINT('',#559);
#457=LINE('',#560,#561);
#458=VERTEX_POINT('',#562);
#459=LINE('',#563,#564);
#460=VERTEX_POINT('',#565);
#461=LINE('',#566,#567);
#462=VERTEX_POINT('',#568);
#463=LINE('',#569,#570);
#464=LINE('',#571,#572);
#465=LINE('',#573,#574);
#466=FILL_AREA_STYLE_COLOUR('',#575);
#467=VERTEX_POINT('',#576);
#468=LINE('',#577,#578);
#469=VERTEX_POINT('',#579);
#470=LINE('',#580,#581);
#471=LINE('',#582,#583);
#472=FILL_AREA_STYLE_COLOUR('',#584);
#473=VERTEX_POINT('',#585);
#474=LINE('',#586,#587);
#475=LINE('',#588,#589);
#476=VERTEX_POINT('',#590);
#477=VERTEX_POINT('',#591);
#478=CIRCLE('',#592,8.75);
#479=CIRCLE('',#593,8.75);
#480=FILL_AREA_STYLE_COLOUR('',#594);
#481=VERTEX_POINT('',#595);
#482=LINE('',#596,#597);
#483=LINE('',#598,#599);
#484=LINE('',#600,#601);
#485=VERTEX_POINT('',#602);
#486=LINE('',#603,#604);
#487=LINE('',#605,#606);
#488=FILL_AREA_STYLE_COLOUR('',#607);
#489=LINE('',#608,#609);
#490=LINE('',#610,#611);
#491=FILL_AREA_STYLE_COLOUR('',#612);
#492=FILL_AREA_STYLE_COLOUR('',#613);
#493=LINE('',#614,#615);
#494=FILL_AREA_STYLE_COLOUR('',#616);
#495=FILL_AREA_STYLE_COLOUR('',#617);
#496=LINE('',#618,#619);
#497=FILL_AREA_STYLE_COLOUR('',#620);
#498=FILL_AREA_STYLE_COLOUR('',#621);
#499=FILL_AREA_STYLE_COLOUR('',#622);
#500=COLOUR_RGB('',0.509803950786591,0.509803950786591,0.588235318660736);
#501=CARTESIAN_POINT('',(-17.5,-2.22649352637057,1.3632890595689E-016));
#502=CARTESIAN_POINT('',(-17.5,-2.22649352637058,-11.5));
#503=CARTESIAN_POINT('',(-17.5,-2.22649352637057,-12.75));
#504=VECTOR('',#623,1.0);
#505=CARTESIAN_POINT('',(-17.5,-32.7735064736294,-11.4999999999999));
#506=CARTESIAN_POINT('',(-17.5,8.52108593428659E-015,-11.5));
#507=VECTOR('',#624,1.0);
#508=CARTESIAN_POINT('',(-17.5,-32.7735064736294,2.00673221323227E-015));
#509=CARTESIAN_POINT('',(-17.5,-32.7735064736294,-12.75));
#510=VECTOR('',#625,1.0);
#511=CARTESIAN_POINT('',(-17.5,9.22523458773445E-015,0.0));
#512=VECTOR('',#626,1.0);
#513=COLOUR_RGB('',0.509803950786591,0.509803950786591,0.588235318660736);
#514=CARTESIAN_POINT('',(-1.55895363842218E-015,8.75,13.278312163513));
#515=CARTESIAN_POINT('',(-1.78166130105392E-015,10.0,14.0));
#516=CARTESIAN_POINT('',(-1.66110833433708E-015,9.32336765329342,13.6093461324865));
#517=VECTOR('',#627,1.0);
#518=CARTESIAN_POINT('',(8.75,1.00824590354101E-014,13.278312163513));
#519=AXIS2_PLACEMENT_3D('',#628,#629,#630);
#520=CARTESIAN_POINT('',(1.55895363842219E-015,-8.75,13.278312163513));
#521=AXIS2_PLACEMENT_3D('',#631,#632,#633);
#522=CARTESIAN_POINT('',(1.78166130105392E-015,-9.99999999999999,14.0));
#523=CARTESIAN_POINT('',(1.66110833433708E-015,-9.32336765329339,13.6093461324865));
#524=VECTOR('',#634,1.0);
#525=CARTESIAN_POINT('',(10.0,1.00824590354101E-014,14.0));
#526=AXIS2_PLACEMENT_3D('',#635,#636,#637);
#527=AXIS2_PLACEMENT_3D('',#638,#639,#640);
#528=COLOUR_RGB('',0.509803950786591,0.509803950786591,0.588235318660736);
#529=AXIS2_PLACEMENT_3D('',#641,#642,#643);
#530=CARTESIAN_POINT('',(10.8,26.0735064736294,14.0));
#531=CARTESIAN_POINT('',(10.8,-4.47350647362936,14.0));
#532=CARTESIAN_POINT('',(10.8,1.00824590354101E-014,14.0));
#533=VECTOR('',#644,1.0);
#534=CARTESIAN_POINT('',(-10.8,4.47350647362941,14.0));
#535=CARTESIAN_POINT('',(7.63162338159265,22.9051298552221,14.0));
#536=VECTOR('',#645,1.0);
#537=CARTESIAN_POINT('',(-10.8,-26.0735064736294,14.0));
#538=CARTESIAN_POINT('',(-10.8,1.00824590354101E-014,14.0));
#539=VECTOR('',#646,1.0);
#540=CARTESIAN_POINT('',(-7.63162338159267,-22.9051298552221,14.0));
#541=VECTOR('',#647,1.0);
#542=COLOUR_RGB('',0.509803950786591,0.509803950786591,0.588235318660736);
#543=CARTESIAN_POINT('',(-8.75,-1.07153055959458E-015,13.278312163513));
#544=AXIS2_PLACEMENT_3D('',#648,#649,#650);
#545=AXIS2_PLACEMENT_3D('',#651,#652,#653);
#546=COLOUR_RGB('',0.509803950786591,0.509803950786591,0.588235318660736);
#547=CARTESIAN_POINT('',(-15.0,0.273506473629453,-14.0));
#548=CARTESIAN_POINT('',(-5.04558441227148,10.2279220613579,-23.9544155877284));
#549=VECTOR('',#654,1.0);
#550=CARTESIAN_POINT('',(-14.9999999999999,-30.2735064736293,-14.0));
#551=CARTESIAN_POINT('',(-14.9999999999999,8.36801014005879E-015,-14.0));
#552=VECTOR('',#655,1.0);
#553=CARTESIAN_POINT('',(-10.7877489210617,-26.0612553946911,-18.2122510789382));
#554=VECTOR('',#656,1.0);
#555=COLOUR_RGB('',0.509803950786591,0.509803950786591,0.588235318660736);
#556=CARTESIAN_POINT('',(-10.8,-26.0735064736294,1.59648908470177E-015));
#557=CARTESIAN_POINT('',(-9.30662338159266,-24.5801298552221,1.77635683940025E-015));
#558=VECTOR('',#657,1.0);
#559=CARTESIAN_POINT('',(15.0,-0.273506473629399,-14.0));
#560=CARTESIAN_POINT('',(-1.18162338159268,-16.4551298552221,-14.0));
#561=VECTOR('',#658,1.0);
#562=CARTESIAN_POINT('',(17.4999999999999,2.2264935263706,-11.5000000000001));
#563=CARTESIAN_POINT('',(4.21225107893821,-11.0612553946912,-24.7877489210618));
#564=VECTOR('',#659,1.0);
#565=CARTESIAN_POINT('',(17.4999999999999,2.2264935263706,2.8421709430404E-014));
#566=CARTESIAN_POINT('',(17.5,2.22649352637063,-12.75));
#567=VECTOR('',#660,1.0);
#568=CARTESIAN_POINT('',(10.8,-4.47350647362936,2.86956236529776E-014));
#569=CARTESIAN_POINT('',(-0.55662338159267,-15.8301298552221,2.8421709430404E-014));
#570=VECTOR('',#661,1.0);
#571=CARTESIAN_POINT('',(10.8,-4.47350647362936,1.4210854715202E-014));
#572=VECTOR('',#662,1.0);
#573=CARTESIAN_POINT('',(-10.8,-26.0735064736294,-6.99999999999999));
#574=VECTOR('',#663,1.0);
#575=COLOUR_RGB('',0.509803950786591,0.509803950786591,0.588235318660736);
#576=CARTESIAN_POINT('',(17.5,32.7735064736294,2.66453525910038E-014));
#577=CARTESIAN_POINT('',(17.5,9.22523458773445E-015,2.8421709430404E-014));
#578=VECTOR('',#664,1.0);
#579=CARTESIAN_POINT('',(10.8,26.0735064736294,2.68252203457022E-014));
#580=CARTESIAN_POINT('',(9.30662338159265,24.5801298552221,2.57571741713036E-014));
#581=VECTOR('',#665,1.0);
#582=CARTESIAN_POINT('',(10.8,9.22523458773445E-015,2.8421709430404E-014));
#583=VECTOR('',#666,1.0);
#584=COLOUR_RGB('',0.509803950786591,0.509803950786591,0.588235318660736);
#585=CARTESIAN_POINT('',(15.0,30.2735064736294,-14.0));
#586=CARTESIAN_POINT('',(15.0,8.36801014005879E-015,-14.0));
#587=VECTOR('',#667,1.0);
#588=CARTESIAN_POINT('',(1.18162338159267,16.4551298552221,-14.0));
#589=VECTOR('',#668,1.0);
#590=CARTESIAN_POINT('',(8.75,0.0,-14.0));
#591=CARTESIAN_POINT('',(-8.75,-1.07153055959458E-015,-14.0));
#592=AXIS2_PLACEMENT_3D('',#669,#670,#671);
#593=AXIS2_PLACEMENT_3D('',#672,#673,#674);
#594=COLOUR_RGB('',0.509803950786591,0.509803950786591,0.588235318660736);
#595=CARTESIAN_POINT('',(-10.8,4.47350647362941,-2.73914222573605E-016));
#596=CARTESIAN_POINT('',(0.556623381592646,15.8301298552221,-1.77635683940025E-015));
#597=VECTOR('',#675,1.0);
#598=CARTESIAN_POINT('',(-10.8,4.47350647362941,1.4210854715202E-014));
#599=VECTOR('',#676,1.0);
#600=CARTESIAN_POINT('',(10.8,26.0735064736294,-6.99999999999997));
#601=VECTOR('',#677,1.0);
#602=CARTESIAN_POINT('',(17.5,32.7735064736294,-11.5));
#603=CARTESIAN_POINT('',(17.5,32.7735064736294,-12.75));
#604=VECTOR('',#678,1.0);
#605=CARTESIAN_POINT('',(10.7877489210618,26.0612553946912,-18.2122510789382));
#606=VECTOR('',#679,1.0);
#607=COLOUR_RGB('',0.509803950786591,0.509803950786591,0.588235318660736);
#608=CARTESIAN_POINT('',(8.75,1.07153055959458E-015,-0.36084391824353));
#609=VECTOR('',#680,1.0);
#610=CARTESIAN_POINT('',(-8.75,-1.07153055959458E-015,-0.36084391824353));
#611=VECTOR('',#681,1.0);
#612=COLOUR_RGB('',0.509803950786591,0.509803950786591,0.588235318660736);
#613=COLOUR_RGB('',0.509803950786591,0.509803950786591,0.588235318660736);
#614=CARTESIAN_POINT('',(-10.8,9.22523458773445E-015,0.0));
#615=VECTOR('',#682,1.0);
#616=COLOUR_RGB('',0.509803950786591,0.509803950786591,0.588235318660736);
#617=COLOUR_RGB('',0.509803950786591,0.509803950786591,0.588235318660736);
#618=CARTESIAN_POINT('',(17.5,8.52108593428659E-015,-11.5));
#619=VECTOR('',#683,1.0);
#620=COLOUR_RGB('',0.509803950786591,0.509803950786591,0.588235318660736);
#621=COLOUR_RGB('',0.509803950786591,0.509803950786591,0.588235318660736);
#622=COLOUR_RGB('',0.509803950786591,0.509803950786591,0.588235318660736);
#623=DIRECTION('',(0.0,0.0,-1.0));
#624=DIRECTION('',(0.0,-1.0,6.12303176911189E-017));
#625=DIRECTION('',(0.0,0.0,1.0));
#626=DIRECTION('',(0.0,-1.0,6.12303176911189E-017));
#627=DIRECTION('',(-1.54296394765233E-016,0.866025403784439,0.5));
#628=CARTESIAN_POINT('',(0.0,0.0,13.278312163513));
#629=DIRECTION('',(0.0,0.0,1.0));
#630=DIRECTION('',(1.0,0.0,0.0));
#631=CARTESIAN_POINT('',(0.0,0.0,13.278312163513));
#632=DIRECTION('',(0.0,0.0,1.0));
#633=DIRECTION('',(1.0,0.0,0.0));
#634=DIRECTION('',(-1.54296394765233E-016,0.866025403784439,-0.5));
#635=CARTESIAN_POINT('',(0.0,1.00824590354101E-014,14.0));
#636=DIRECTION('',(4.52017967770792E-049,-6.12303176911189E-017,-1.0));
#637=DIRECTION('',(-5.57054947231547E-017,1.0,-6.12303176911189E-017));
#638=CARTESIAN_POINT('',(0.0,1.00824590354101E-014,14.0));
#639=DIRECTION('',(4.52017967770792E-049,-6.12303176911189E-017,-1.0));
#640=DIRECTION('',(-5.57054947231547E-017,1.0,-6.12303176911189E-017));
#641=CARTESIAN_POINT('',(0.0,1.00824590354101E-014,14.0));
#642=DIRECTION('',(4.52017967770792E-049,-6.12303176911189E-017,-1.0));
#643=DIRECTION('',(-5.57054947231547E-017,1.0,-6.12303176911189E-017));
#644=DIRECTION('',(0.0,-1.0,6.12303176911189E-017));
#645=DIRECTION('',(-0.707106781186548,-0.707106781186548,4.32963728535968E-017));
#646=DIRECTION('',(0.0,-1.0,6.12303176911189E-017));
#647=DIRECTION('',(0.707106781186547,0.707106781186548,-4.32963728535968E-017));
#648=CARTESIAN_POINT('',(0.0,0.0,13.278312163513));
#649=DIRECTION('',(0.0,0.0,1.0));
#650=DIRECTION('',(1.0,0.0,0.0));
#651=CARTESIAN_POINT('',(0.0,0.0,13.278312163513));
#652=DIRECTION('',(0.0,0.0,1.0));
#653=DIRECTION('',(1.0,0.0,0.0));
#654=DIRECTION('',(0.577350269189628,0.577350269189628,-0.577350269189621));
#655=DIRECTION('',(0.0,-1.0,6.12303176911189E-017));
#656=DIRECTION('',(-0.577350269189628,-0.577350269189628,0.577350269189621));
#657=DIRECTION('',(0.707106781186547,0.707106781186548,-4.32963728535968E-017));
#658=DIRECTION('',(-0.707106781186547,-0.707106781186548,4.32963728535968E-017));
#659=DIRECTION('',(-0.577350269189626,-0.577350269189626,-0.577350269189626));
#660=DIRECTION('',(0.0,0.0,-1.0));
#661=DIRECTION('',(0.707106781186547,0.707106781186548,-4.32963728535968E-017));
#662=DIRECTION('',(0.0,0.0,-1.0));
#663=DIRECTION('',(0.0,0.0,1.0));
#664=DIRECTION('',(0.0,1.0,-6.12303176911189E-017));
#665=DIRECTION('',(-0.707106781186548,-0.707106781186548,4.32963728535968E-017));
#666=DIRECTION('',(0.0,-1.0,6.12303176911189E-017));
#667=DIRECTION('',(0.0,-1.0,6.12303176911189E-017));
#668=DIRECTION('',(0.707106781186548,0.707106781186548,-4.32963728535968E-017));
#669=CARTESIAN_POINT('',(0.0,0.0,-14.0));
#670=DIRECTION('',(-0.0,6.12303176911189E-017,1.0));
#671=DIRECTION('',(1.0,0.0,0.0));
#672=CARTESIAN_POINT('',(0.0,0.0,-14.0));
#673=DIRECTION('',(-0.0,6.12303176911189E-017,1.0));
#674=DIRECTION('',(1.0,0.0,0.0));
#675=DIRECTION('',(-0.707106781186548,-0.707106781186548,4.32963728535968E-017));
#676=DIRECTION('',(0.0,0.0,-1.0));
#677=DIRECTION('',(0.0,0.0,1.0));
#678=DIRECTION('',(0.0,0.0,1.0));
#679=DIRECTION('',(0.577350269189626,0.577350269189626,0.577350269189626));
#680=DIRECTION('',(-0.0,-0.0,1.0));
#681=DIRECTION('',(-0.0,-0.0,-1.0));
#682=DIRECTION('',(0.0,-1.0,6.12303176911189E-017));
#683=DIRECTION('',(0.0,1.0,-6.12303176911189E-017));
ENDSEC;
END-ISO-10303-21;
