ISO-10303-21;
HEADER;
FILE_DESCRIPTION(('STEP AP214'),'1');
FILE_NAME('C:/temp/halder/09_10_2014/CAD/Temp/HALDERN_EH_23020_0680.stp','2014-10-09T11:17:38',('TraceParts'),('TraceParts S.A.'),'Spatial InterOp 3D',' ',' ');
FILE_SCHEMA(('automotive_design'));
ENDSEC;
DATA;
#1=MECHANICAL_DESIGN_GEOMETRIC_PRESENTATION_REPRESENTATION(' ',(#10,#11,#12,#13,#14,#15,#16,#17,#18,#19,#20,#21,#22,#23,#24,#25,#26),#6);
#2=PRODUCT_DEFINITION_CONTEXT('',#27,'design');
#3=APPLICATION_PROTOCOL_DEFINITION('INTERNATIONAL STANDARD','automotive_design',1994,#27);
#4=PRODUCT_CATEGORY_RELATIONSHIP('NONE','NONE',#28,#29);
#5=SHAPE_DEFINITION_REPRESENTATION(#30,#31);
#6= (GEOMETRIC_REPRESENTATION_CONTEXT(3)GLOBAL_UNCERTAINTY_ASSIGNED_CONTEXT((#34))GLOBAL_UNIT_ASSIGNED_CONTEXT((#36,#37,#38))REPRESENTATION_CONTEXT('NONE','WORKSPACE'));
#10=STYLED_ITEM('',(#40),#41);
#11=STYLED_ITEM('',(#42),#43);
#12=STYLED_ITEM('',(#44),#45);
#13=STYLED_ITEM('',(#46),#47);
#14=STYLED_ITEM('',(#48),#49);
#15=STYLED_ITEM('',(#50),#51);
#16=STYLED_ITEM('',(#52),#53);
#17=STYLED_ITEM('',(#54),#55);
#18=STYLED_ITEM('',(#56),#57);
#19=STYLED_ITEM('',(#58),#59);
#20=STYLED_ITEM('',(#60),#61);
#21=STYLED_ITEM('',(#62),#63);
#22=STYLED_ITEM('',(#64),#65);
#23=STYLED_ITEM('',(#66),#67);
#24=STYLED_ITEM('',(#68),#69);
#25=STYLED_ITEM('',(#70),#71);
#26=STYLED_ITEM('',(#72),#73);
#27=APPLICATION_CONTEXT(' ');
#28=PRODUCT_CATEGORY('part','NONE');
#29=PRODUCT_RELATED_PRODUCT_CATEGORY('detail',' ',(#74));
#30=PRODUCT_DEFINITION_SHAPE('NONE','NONE',#75);
#31=ADVANCED_BREP_SHAPE_REPRESENTATION('1',(#71,#76),#6);
#34=UNCERTAINTY_MEASURE_WITH_UNIT(LENGTH_MEASURE(1.0E-006),#36,'','');
#36= (CONVERSION_BASED_UNIT('MILLIMETRE',#79)LENGTH_UNIT()NAMED_UNIT(#82));
#37= (NAMED_UNIT(#84)PLANE_ANGLE_UNIT()SI_UNIT($,.RADIAN.));
#38= (NAMED_UNIT(#84)SOLID_ANGLE_UNIT()SI_UNIT($,.STERADIAN.));
#40=PRESENTATION_STYLE_ASSIGNMENT((#90));
#41=ADVANCED_FACE('',(#91),#92,.F.);
#42=PRESENTATION_STYLE_ASSIGNMENT((#93));
#43=ADVANCED_FACE('',(#94,#95),#96,.T.);
#44=PRESENTATION_STYLE_ASSIGNMENT((#97));
#45=ADVANCED_FACE('',(#98),#99,.F.);
#46=PRESENTATION_STYLE_ASSIGNMENT((#100));
#47=ADVANCED_FACE('',(#101),#102,.T.);
#48=PRESENTATION_STYLE_ASSIGNMENT((#103));
#49=ADVANCED_FACE('',(#104),#105,.T.);
#50=PRESENTATION_STYLE_ASSIGNMENT((#106));
#51=ADVANCED_FACE('',(#107,#108),#109,.T.);
#52=PRESENTATION_STYLE_ASSIGNMENT((#110));
#53=ADVANCED_FACE('',(#111),#112,.T.);
#54=PRESENTATION_STYLE_ASSIGNMENT((#113));
#55=ADVANCED_FACE('',(#114),#115,.F.);
#56=PRESENTATION_STYLE_ASSIGNMENT((#116));
#57=ADVANCED_FACE('',(#117),#118,.F.);
#58=PRESENTATION_STYLE_ASSIGNMENT((#119));
#59=ADVANCED_FACE('',(#120),#121,.F.);
#60=PRESENTATION_STYLE_ASSIGNMENT((#122));
#61=ADVANCED_FACE('',(#123),#124,.T.);
#62=PRESENTATION_STYLE_ASSIGNMENT((#125));
#63=ADVANCED_FACE('',(#126),#127,.T.);
#64=PRESENTATION_STYLE_ASSIGNMENT((#128));
#65=ADVANCED_FACE('',(#129),#130,.T.);
#66=PRESENTATION_STYLE_ASSIGNMENT((#131));
#67=ADVANCED_FACE('',(#132),#133,.T.);
#68=PRESENTATION_STYLE_ASSIGNMENT((#134));
#69=ADVANCED_FACE('',(#135),#136,.F.);
#70=PRESENTATION_STYLE_ASSIGNMENT((#137));
#71=MANIFOLD_SOLID_BREP('1',#138);
#72=PRESENTATION_STYLE_ASSIGNMENT((#139));
#73=ADVANCED_FACE('',(#140),#141,.T.);
#74=PRODUCT('1','1','PART-1-DESC',(#142));
#75=PRODUCT_DEFINITION('NONE','NONE',#143,#2);
#76=AXIS2_PLACEMENT_3D('',#144,#145,#146);
#79=LENGTH_MEASURE_WITH_UNIT(LENGTH_MEASURE(1.0),#147);
#82=DIMENSIONAL_EXPONENTS(1.0,0.0,0.0,0.0,0.0,0.0,0.0);
#84=DIMENSIONAL_EXPONENTS(0.0,0.0,0.0,0.0,0.0,0.0,0.0);
#90=SURFACE_STYLE_USAGE(.BOTH.,#148);
#91=FACE_OUTER_BOUND('',#149,.T.);
#92=CYLINDRICAL_SURFACE('',#150,7.0);
#93=SURFACE_STYLE_USAGE(.BOTH.,#151);
#94=FACE_BOUND('',#152,.T.);
#95=FACE_OUTER_BOUND('',#153,.T.);
#96=PLANE('',#154);
#97=SURFACE_STYLE_USAGE(.BOTH.,#155);
#98=FACE_OUTER_BOUND('',#156,.T.);
#99=CONICAL_SURFACE('',#157,7.45868412263472,1.0471975511966);
#100=SURFACE_STYLE_USAGE(.BOTH.,#158);
#101=FACE_OUTER_BOUND('',#159,.T.);
#102=PLANE('',#160);
#103=SURFACE_STYLE_USAGE(.BOTH.,#161);
#104=FACE_OUTER_BOUND('',#162,.T.);
#105=PLANE('',#163);
#106=SURFACE_STYLE_USAGE(.BOTH.,#164);
#107=FACE_OUTER_BOUND('',#165,.T.);
#108=FACE_BOUND('',#166,.T.);
#109=PLANE('',#167);
#110=SURFACE_STYLE_USAGE(.BOTH.,#168);
#111=FACE_OUTER_BOUND('',#169,.T.);
#112=PLANE('',#170);
#113=SURFACE_STYLE_USAGE(.BOTH.,#171);
#114=FACE_OUTER_BOUND('',#172,.T.);
#115=CYLINDRICAL_SURFACE('',#173,7.0);
#116=SURFACE_STYLE_USAGE(.BOTH.,#174);
#117=FACE_OUTER_BOUND('',#175,.T.);
#118=PLANE('',#176);
#119=SURFACE_STYLE_USAGE(.BOTH.,#177);
#120=FACE_OUTER_BOUND('',#178,.T.);
#121=CONICAL_SURFACE('',#179,7.45868412263472,1.0471975511966);
#122=SURFACE_STYLE_USAGE(.BOTH.,#180);
#123=FACE_OUTER_BOUND('',#181,.T.);
#124=PLANE('',#182);
#125=SURFACE_STYLE_USAGE(.BOTH.,#183);
#126=FACE_OUTER_BOUND('',#184,.T.);
#127=PLANE('',#185);
#128=SURFACE_STYLE_USAGE(.BOTH.,#186);
#129=FACE_OUTER_BOUND('',#187,.T.);
#130=PLANE('',#188);
#131=SURFACE_STYLE_USAGE(.BOTH.,#189);
#132=FACE_OUTER_BOUND('',#190,.T.);
#133=PLANE('',#191);
#134=SURFACE_STYLE_USAGE(.BOTH.,#192);
#135=FACE_OUTER_BOUND('',#193,.T.);
#136=PLANE('',#194);
#137=SURFACE_STYLE_USAGE(.BOTH.,#195);
#138=CLOSED_SHELL('',(#41,#45,#49,#57,#69,#63,#47,#43,#73,#53,#59,#55,#51,#65,#67,#61));
#139=SURFACE_STYLE_USAGE(.BOTH.,#196);
#140=FACE_OUTER_BOUND('',#197,.T.);
#141=PLANE('',#198);
#142=PRODUCT_CONTEXT('',#27,'mechanical');
#143=PRODUCT_DEFINITION_FORMATION_WITH_SPECIFIED_SOURCE(' ','NONE',#74,.NOT_KNOWN.);
#144=CARTESIAN_POINT('',(0.0,0.0,0.0));
#145=DIRECTION('',(0.0,0.0,1.0));
#146=DIRECTION('',(1.0,0.0,0.0));
#147= (NAMED_UNIT(#82)LENGTH_UNIT()SI_UNIT(.MILLI.,.METRE.));
#148=SURFACE_SIDE_STYLE('',(#200));
#149=EDGE_LOOP('',(#201,#202,#203,#204,#205));
#150=AXIS2_PLACEMENT_3D('',#206,#207,#208);
#151=SURFACE_SIDE_STYLE('',(#209));
#152=EDGE_LOOP('',(#210,#211,#212));
#153=EDGE_LOOP('',(#213,#214,#215,#216));
#154=AXIS2_PLACEMENT_3D('',#217,#218,#219);
#155=SURFACE_SIDE_STYLE('',(#220));
#156=EDGE_LOOP('',(#221,#222,#223,#224,#225,#226));
#157=AXIS2_PLACEMENT_3D('',#227,#228,#229);
#158=SURFACE_SIDE_STYLE('',(#230));
#159=EDGE_LOOP('',(#231,#232,#233,#234));
#160=AXIS2_PLACEMENT_3D('',#235,#236,#237);
#161=SURFACE_SIDE_STYLE('',(#238));
#162=EDGE_LOOP('',(#239,#240,#241,#242));
#163=AXIS2_PLACEMENT_3D('',#243,#244,#245);
#164=SURFACE_SIDE_STYLE('',(#246));
#165=EDGE_LOOP('',(#247,#248,#249,#250));
#166=EDGE_LOOP('',(#251,#252));
#167=AXIS2_PLACEMENT_3D('',#253,#254,#255);
#168=SURFACE_SIDE_STYLE('',(#256));
#169=EDGE_LOOP('',(#257,#258,#259,#260));
#170=AXIS2_PLACEMENT_3D('',#261,#262,#263);
#171=SURFACE_SIDE_STYLE('',(#264));
#172=EDGE_LOOP('',(#265,#266,#267,#268,#269));
#173=AXIS2_PLACEMENT_3D('',#270,#271,#272);
#174=SURFACE_SIDE_STYLE('',(#273));
#175=EDGE_LOOP('',(#274,#275,#276,#277,#278,#279,#280,#281,#282,#283));
#176=AXIS2_PLACEMENT_3D('',#284,#285,#286);
#177=SURFACE_SIDE_STYLE('',(#287));
#178=EDGE_LOOP('',(#288,#289,#290,#291,#292));
#179=AXIS2_PLACEMENT_3D('',#293,#294,#295);
#180=SURFACE_SIDE_STYLE('',(#296));
#181=EDGE_LOOP('',(#297,#298,#299,#300));
#182=AXIS2_PLACEMENT_3D('',#301,#302,#303);
#183=SURFACE_SIDE_STYLE('',(#304));
#184=EDGE_LOOP('',(#305,#306,#307,#308));
#185=AXIS2_PLACEMENT_3D('',#309,#310,#311);
#186=SURFACE_SIDE_STYLE('',(#312));
#187=EDGE_LOOP('',(#313,#314,#315,#316));
#188=AXIS2_PLACEMENT_3D('',#317,#318,#319);
#189=SURFACE_SIDE_STYLE('',(#320));
#190=EDGE_LOOP('',(#321,#322,#323,#324));
#191=AXIS2_PLACEMENT_3D('',#325,#326,#327);
#192=SURFACE_SIDE_STYLE('',(#328));
#193=EDGE_LOOP('',(#329,#330,#331,#332,#333,#334,#335,#336,#337,#338));
#194=AXIS2_PLACEMENT_3D('',#339,#340,#341);
#195=SURFACE_SIDE_STYLE('',(#342));
#196=SURFACE_SIDE_STYLE('',(#343));
#197=EDGE_LOOP('',(#344,#345,#346,#347));
#198=AXIS2_PLACEMENT_3D('',#348,#349,#350);
#200=SURFACE_STYLE_FILL_AREA(#351);
#201=ORIENTED_EDGE('',*,*,#352,.F.);
#202=ORIENTED_EDGE('',*,*,#353,.F.);
#203=ORIENTED_EDGE('',*,*,#354,.F.);
#204=ORIENTED_EDGE('',*,*,#355,.T.);
#205=ORIENTED_EDGE('',*,*,#356,.T.);
#206=CARTESIAN_POINT('',(0.0,0.0,10.0));
#207=DIRECTION('',(0.0,0.0,-1.0));
#208=DIRECTION('',(1.0,0.0,0.0));
#209=SURFACE_STYLE_FILL_AREA(#357);
#210=ORIENTED_EDGE('',*,*,#358,.T.);
#211=ORIENTED_EDGE('',*,*,#359,.T.);
#212=ORIENTED_EDGE('',*,*,#360,.T.);
#213=ORIENTED_EDGE('',*,*,#361,.F.);
#214=ORIENTED_EDGE('',*,*,#362,.T.);
#215=ORIENTED_EDGE('',*,*,#363,.T.);
#216=ORIENTED_EDGE('',*,*,#364,.T.);
#217=CARTESIAN_POINT('',(-8.80000000000001,9.83753776464564E-015,10.0));
#218=DIRECTION('',(0.0,6.12303176911189E-017,1.0));
#219=DIRECTION('',(0.0,-1.0,6.12303176911189E-017));
#220=SURFACE_STYLE_FILL_AREA(#365);
#221=ORIENTED_EDGE('',*,*,#366,.F.);
#222=ORIENTED_EDGE('',*,*,#367,.F.);
#223=ORIENTED_EDGE('',*,*,#356,.F.);
#224=ORIENTED_EDGE('',*,*,#368,.F.);
#225=ORIENTED_EDGE('',*,*,#358,.F.);
#226=ORIENTED_EDGE('',*,*,#360,.F.);
#227=CARTESIAN_POINT('',(0.0,9.83753776464564E-015,9.68747113248654));
#228=DIRECTION('',(-0.0,-0.0,1.0));
#229=DIRECTION('',(-5.57053767070927E-017,1.0,0.0));
#230=SURFACE_STYLE_FILL_AREA(#369);
#231=ORIENTED_EDGE('',*,*,#370,.T.);
#232=ORIENTED_EDGE('',*,*,#363,.F.);
#233=ORIENTED_EDGE('',*,*,#371,.T.);
#234=ORIENTED_EDGE('',*,*,#372,.T.);
#235=CARTESIAN_POINT('',(-8.80000000000001,9.22523458773445E-015,0.0));
#236=DIRECTION('',(-1.0,0.0,0.0));
#237=DIRECTION('',(0.0,-1.0,6.12303176911189E-017));
#238=SURFACE_STYLE_FILL_AREA(#373);
#239=ORIENTED_EDGE('',*,*,#374,.T.);
#240=ORIENTED_EDGE('',*,*,#375,.F.);
#241=ORIENTED_EDGE('',*,*,#376,.T.);
#242=ORIENTED_EDGE('',*,*,#377,.T.);
#243=CARTESIAN_POINT('',(14.0,8.76600720505106E-015,-7.5));
#244=DIRECTION('',(1.0,0.0,0.0));
#245=DIRECTION('',(0.0,1.0,-6.12303176911189E-017));
#246=SURFACE_STYLE_FILL_AREA(#378);
#247=ORIENTED_EDGE('',*,*,#379,.T.);
#248=ORIENTED_EDGE('',*,*,#380,.T.);
#249=ORIENTED_EDGE('',*,*,#381,.F.);
#250=ORIENTED_EDGE('',*,*,#382,.T.);
#251=ORIENTED_EDGE('',*,*,#383,.T.);
#252=ORIENTED_EDGE('',*,*,#353,.T.);
#253=CARTESIAN_POINT('',(11.5,8.61293141082326E-015,-10.0));
#254=DIRECTION('',(0.0,-6.12303176911189E-017,-1.0));
#255=DIRECTION('',(0.0,1.0,-6.12303176911189E-017));
#256=SURFACE_STYLE_FILL_AREA(#384);
#257=ORIENTED_EDGE('',*,*,#385,.T.);
#258=ORIENTED_EDGE('',*,*,#375,.T.);
#259=ORIENTED_EDGE('',*,*,#386,.T.);
#260=ORIENTED_EDGE('',*,*,#387,.T.);
#261=CARTESIAN_POINT('',(8.80000000000001,9.22523458773445E-015,0.0));
#262=DIRECTION('',(0.0,6.12303176911189E-017,1.0));
#263=DIRECTION('',(0.0,-1.0,6.12303176911189E-017));
#264=SURFACE_STYLE_FILL_AREA(#388);
#265=ORIENTED_EDGE('',*,*,#352,.T.);
#266=ORIENTED_EDGE('',*,*,#367,.T.);
#267=ORIENTED_EDGE('',*,*,#389,.T.);
#268=ORIENTED_EDGE('',*,*,#354,.T.);
#269=ORIENTED_EDGE('',*,*,#383,.F.);
#270=CARTESIAN_POINT('',(0.0,0.0,10.0));
#271=DIRECTION('',(0.0,0.0,-1.0));
#272=DIRECTION('',(1.0,0.0,0.0));
#273=SURFACE_STYLE_FILL_AREA(#390);
#274=ORIENTED_EDGE('',*,*,#391,.F.);
#275=ORIENTED_EDGE('',*,*,#392,.F.);
#276=ORIENTED_EDGE('',*,*,#393,.F.);
#277=ORIENTED_EDGE('',*,*,#371,.F.);
#278=ORIENTED_EDGE('',*,*,#362,.F.);
#279=ORIENTED_EDGE('',*,*,#394,.F.);
#280=ORIENTED_EDGE('',*,*,#386,.F.);
#281=ORIENTED_EDGE('',*,*,#374,.F.);
#282=ORIENTED_EDGE('',*,*,#395,.F.);
#283=ORIENTED_EDGE('',*,*,#382,.F.);
#284=CARTESIAN_POINT('',(14.0,26.4450793488832,-10.0));
#285=DIRECTION('',(0.707106781186548,-0.707106781186548,0.0));
#286=DIRECTION('',(0.0,0.0,-1.0));
#287=SURFACE_STYLE_FILL_AREA(#396);
#288=ORIENTED_EDGE('',*,*,#366,.T.);
#289=ORIENTED_EDGE('',*,*,#359,.F.);
#290=ORIENTED_EDGE('',*,*,#368,.T.);
#291=ORIENTED_EDGE('',*,*,#355,.F.);
#292=ORIENTED_EDGE('',*,*,#389,.F.);
#293=CARTESIAN_POINT('',(0.0,9.83753776464564E-015,9.68747113248654));
#294=DIRECTION('',(-0.0,-0.0,1.0));
#295=DIRECTION('',(-5.57053767070927E-017,1.0,0.0));
#296=SURFACE_STYLE_FILL_AREA(#397);
#297=ORIENTED_EDGE('',*,*,#392,.T.);
#298=ORIENTED_EDGE('',*,*,#398,.T.);
#299=ORIENTED_EDGE('',*,*,#399,.T.);
#300=ORIENTED_EDGE('',*,*,#400,.F.);
#301=CARTESIAN_POINT('',(-14.0,8.76600720505106E-015,-7.49999999999997));
#302=DIRECTION('',(-1.0,0.0,0.0));
#303=DIRECTION('',(0.0,-1.0,6.12303176911189E-017));
#304=SURFACE_STYLE_FILL_AREA(#401);
#305=ORIENTED_EDGE('',*,*,#393,.T.);
#306=ORIENTED_EDGE('',*,*,#400,.T.);
#307=ORIENTED_EDGE('',*,*,#402,.T.);
#308=ORIENTED_EDGE('',*,*,#372,.F.);
#309=CARTESIAN_POINT('',(-14.0,9.22523458773445E-015,0.0));
#310=DIRECTION('',(0.0,6.12303176911189E-017,1.0));
#311=DIRECTION('',(0.0,-1.0,6.12303176911189E-017));
#312=SURFACE_STYLE_FILL_AREA(#403);
#313=ORIENTED_EDGE('',*,*,#404,.T.);
#314=ORIENTED_EDGE('',*,*,#379,.F.);
#315=ORIENTED_EDGE('',*,*,#395,.T.);
#316=ORIENTED_EDGE('',*,*,#377,.F.);
#317=CARTESIAN_POINT('',(14.0,8.76600720505106E-015,-7.5));
#318=DIRECTION('',(0.707106781186548,-4.32963728535968E-017,-0.707106781186548));
#319=DIRECTION('',(-1.07031965039769E-033,1.0,-6.12303176911189E-017));
#320=SURFACE_STYLE_FILL_AREA(#405);
#321=ORIENTED_EDGE('',*,*,#391,.T.);
#322=ORIENTED_EDGE('',*,*,#381,.T.);
#323=ORIENTED_EDGE('',*,*,#406,.T.);
#324=ORIENTED_EDGE('',*,*,#398,.F.);
#325=CARTESIAN_POINT('',(-11.4999999999999,8.61293141082326E-015,-10.0));
#326=DIRECTION('',(-0.707106781186543,-4.3296372853597E-017,-0.707106781186552));
#327=DIRECTION('',(1.9789210235981E-034,-1.0,6.12303176911189E-017));
#328=SURFACE_STYLE_FILL_AREA(#407);
#329=ORIENTED_EDGE('',*,*,#402,.F.);
#330=ORIENTED_EDGE('',*,*,#399,.F.);
#331=ORIENTED_EDGE('',*,*,#406,.F.);
#332=ORIENTED_EDGE('',*,*,#380,.F.);
#333=ORIENTED_EDGE('',*,*,#404,.F.);
#334=ORIENTED_EDGE('',*,*,#376,.F.);
#335=ORIENTED_EDGE('',*,*,#385,.F.);
#336=ORIENTED_EDGE('',*,*,#408,.F.);
#337=ORIENTED_EDGE('',*,*,#364,.F.);
#338=ORIENTED_EDGE('',*,*,#370,.F.);
#339=CARTESIAN_POINT('',(-14.0,-26.4450793488832,-10.0));
#340=DIRECTION('',(-0.707106781186548,0.707106781186547,0.0));
#341=DIRECTION('',(0.0,0.0,1.0));
#342=SURFACE_STYLE_FILL_AREA(#409);
#343=SURFACE_STYLE_FILL_AREA(#410);
#344=ORIENTED_EDGE('',*,*,#408,.T.);
#345=ORIENTED_EDGE('',*,*,#387,.F.);
#346=ORIENTED_EDGE('',*,*,#394,.T.);
#347=ORIENTED_EDGE('',*,*,#361,.T.);
#348=CARTESIAN_POINT('',(8.80000000000001,9.83753776464564E-015,10.0));
#349=DIRECTION('',(1.0,0.0,0.0));
#350=DIRECTION('',(0.0,1.0,-6.12303176911189E-017));
#351=FILL_AREA_STYLE('',(#411));
#352=EDGE_CURVE('',#412,#413,#414,.T.);
#353=EDGE_CURVE('',#415,#412,#416,.T.);
#354=EDGE_CURVE('',#417,#415,#418,.T.);
#355=EDGE_CURVE('',#417,#419,#420,.T.);
#356=EDGE_CURVE('',#419,#413,#421,.T.);
#357=FILL_AREA_STYLE('',(#422));
#358=EDGE_CURVE('',#423,#424,#425,.T.);
#359=EDGE_CURVE('',#424,#426,#427,.T.);
#360=EDGE_CURVE('',#426,#423,#428,.T.);
#361=EDGE_CURVE('',#429,#430,#431,.T.);
#362=EDGE_CURVE('',#429,#432,#433,.T.);
#363=EDGE_CURVE('',#432,#434,#435,.T.);
#364=EDGE_CURVE('',#434,#430,#436,.T.);
#365=FILL_AREA_STYLE('',(#437));
#366=EDGE_CURVE('',#438,#426,#439,.T.);
#367=EDGE_CURVE('',#413,#438,#440,.T.);
#368=EDGE_CURVE('',#424,#419,#441,.T.);
#369=FILL_AREA_STYLE('',(#442));
#370=EDGE_CURVE('',#443,#434,#444,.T.);
#371=EDGE_CURVE('',#432,#445,#446,.T.);
#372=EDGE_CURVE('',#445,#443,#447,.T.);
#373=FILL_AREA_STYLE('',(#448));
#374=EDGE_CURVE('',#449,#450,#451,.T.);
#375=EDGE_CURVE('',#452,#450,#453,.T.);
#376=EDGE_CURVE('',#452,#454,#455,.T.);
#377=EDGE_CURVE('',#454,#449,#456,.T.);
#378=FILL_AREA_STYLE('',(#457));
#379=EDGE_CURVE('',#458,#459,#460,.T.);
#380=EDGE_CURVE('',#459,#461,#462,.T.);
#381=EDGE_CURVE('',#463,#461,#464,.T.);
#382=EDGE_CURVE('',#463,#458,#465,.T.);
#383=EDGE_CURVE('',#412,#415,#466,.T.);
#384=FILL_AREA_STYLE('',(#467));
#385=EDGE_CURVE('',#468,#452,#469,.T.);
#386=EDGE_CURVE('',#450,#470,#471,.T.);
#387=EDGE_CURVE('',#470,#468,#472,.T.);
#388=FILL_AREA_STYLE('',(#473));
#389=EDGE_CURVE('',#438,#417,#474,.T.);
#390=FILL_AREA_STYLE('',(#475));
#391=EDGE_CURVE('',#476,#463,#477,.T.);
#392=EDGE_CURVE('',#478,#476,#479,.T.);
#393=EDGE_CURVE('',#445,#478,#480,.T.);
#394=EDGE_CURVE('',#470,#429,#481,.T.);
#395=EDGE_CURVE('',#458,#449,#482,.T.);
#396=FILL_AREA_STYLE('',(#483));
#397=FILL_AREA_STYLE('',(#484));
#398=EDGE_CURVE('',#476,#485,#486,.T.);
#399=EDGE_CURVE('',#485,#487,#488,.T.);
#400=EDGE_CURVE('',#478,#487,#489,.T.);
#401=FILL_AREA_STYLE('',(#490));
#402=EDGE_CURVE('',#487,#443,#491,.T.);
#403=FILL_AREA_STYLE('',(#492));
#404=EDGE_CURVE('',#454,#459,#493,.T.);
#405=FILL_AREA_STYLE('',(#494));
#406=EDGE_CURVE('',#461,#485,#495,.T.);
#407=FILL_AREA_STYLE('',(#496));
#408=EDGE_CURVE('',#430,#468,#497,.T.);
#409=FILL_AREA_STYLE('',(#498));
#410=FILL_AREA_STYLE('',(#499));
#411=FILL_AREA_STYLE_COLOUR('',#500);
#412=VERTEX_POINT('',#501);
#413=VERTEX_POINT('',#502);
#414=LINE('',#503,#504);
#415=VERTEX_POINT('',#505);
#416=CIRCLE('',#506,7.0);
#417=VERTEX_POINT('',#507);
#418=LINE('',#508,#509);
#419=VERTEX_POINT('',#510);
#420=CIRCLE('',#511,7.0);
#421=CIRCLE('',#512,7.0);
#422=FILL_AREA_STYLE_COLOUR('',#513);
#423=VERTEX_POINT('',#514);
#424=VERTEX_POINT('',#515);
#425=CIRCLE('',#516,8.0);
#426=VERTEX_POINT('',#517);
#427=CIRCLE('',#518,8.0);
#428=CIRCLE('',#519,8.0);
#429=VERTEX_POINT('',#520);
#430=VERTEX_POINT('',#521);
#431=LINE('',#522,#523);
#432=VERTEX_POINT('',#524);
#433=LINE('',#525,#526);
#434=VERTEX_POINT('',#527);
#435=LINE('',#528,#529);
#436=LINE('',#530,#531);
#437=FILL_AREA_STYLE_COLOUR('',#532);
#438=VERTEX_POINT('',#533);
#439=LINE('',#534,#535);
#440=CIRCLE('',#536,7.0);
#441=LINE('',#537,#538);
#442=FILL_AREA_STYLE_COLOUR('',#539);
#443=VERTEX_POINT('',#540);
#444=LINE('',#541,#542);
#445=VERTEX_POINT('',#543);
#446=LINE('',#544,#545);
#447=LINE('',#546,#547);
#448=FILL_AREA_STYLE_COLOUR('',#548);
#449=VERTEX_POINT('',#549);
#450=VERTEX_POINT('',#550);
#451=LINE('',#551,#552);
#452=VERTEX_POINT('',#553);
#453=LINE('',#554,#555);
#454=VERTEX_POINT('',#556);
#455=LINE('',#557,#558);
#456=LINE('',#559,#560);
#457=FILL_AREA_STYLE_COLOUR('',#561);
#458=VERTEX_POINT('',#562);
#459=VERTEX_POINT('',#563);
#460=LINE('',#564,#565);
#461=VERTEX_POINT('',#566);
#462=LINE('',#567,#568);
#463=VERTEX_POINT('',#569);
#464=LINE('',#570,#571);
#465=LINE('',#572,#573);
#466=CIRCLE('',#574,7.0);
#467=FILL_AREA_STYLE_COLOUR('',#575);
#468=VERTEX_POINT('',#576);
#469=LINE('',#577,#578);
#470=VERTEX_POINT('',#579);
#471=LINE('',#580,#581);
#472=LINE('',#582,#583);
#473=FILL_AREA_STYLE_COLOUR('',#584);
#474=CIRCLE('',#585,7.0);
#475=FILL_AREA_STYLE_COLOUR('',#586);
#476=VERTEX_POINT('',#587);
#477=LINE('',#588,#589);
#478=VERTEX_POINT('',#590);
#479=LINE('',#591,#592);
#480=LINE('',#593,#594);
#481=LINE('',#595,#596);
#482=LINE('',#597,#598);
#483=FILL_AREA_STYLE_COLOUR('',#599);
#484=FILL_AREA_STYLE_COLOUR('',#600);
#485=VERTEX_POINT('',#601);
#486=LINE('',#602,#603);
#487=VERTEX_POINT('',#604);
#488=LINE('',#605,#606);
#489=LINE('',#607,#608);
#490=FILL_AREA_STYLE_COLOUR('',#609);
#491=LINE('',#610,#611);
#492=FILL_AREA_STYLE_COLOUR('',#612);
#493=LINE('',#613,#614);
#494=FILL_AREA_STYLE_COLOUR('',#615);
#495=LINE('',#616,#617);
#496=FILL_AREA_STYLE_COLOUR('',#618);
#497=LINE('',#619,#620);
#498=FILL_AREA_STYLE_COLOUR('',#621);
#499=FILL_AREA_STYLE_COLOUR('',#622);
#500=COLOUR_RGB('',0.509803950786591,0.509803950786591,0.588235318660736);
#501=CARTESIAN_POINT('',(7.0,0.0,-10.0));
#502=CARTESIAN_POINT('',(7.0,9.83753776464564E-015,9.42264973081037));
#503=CARTESIAN_POINT('',(7.0,8.57224447675664E-016,-0.288675134594827));
#504=VECTOR('',#623,1.0);
#505=CARTESIAN_POINT('',(-7.0,-8.57224447675664E-016,-10.0));
#506=AXIS2_PLACEMENT_3D('',#624,#625,#626);
#507=CARTESIAN_POINT('',(-7.0,-8.57224447675664E-016,9.42264973081037));
#508=CARTESIAN_POINT('',(-7.0,-8.57224447675664E-016,-0.288675134594827));
#509=VECTOR('',#627,1.0);
#510=CARTESIAN_POINT('',(1.24716208462532E-015,-7.0,9.42264973081037));
#511=AXIS2_PLACEMENT_3D('',#628,#629,#630);
#512=AXIS2_PLACEMENT_3D('',#631,#632,#633);
#513=COLOUR_RGB('',0.509803950786591,0.509803950786591,0.588235318660736);
#514=CARTESIAN_POINT('',(8.0,9.83753776464564E-015,10.0));
#515=CARTESIAN_POINT('',(1.42532809671464E-015,-7.99999999999999,10.0));
#516=AXIS2_PLACEMENT_3D('',#634,#635,#636);
#517=CARTESIAN_POINT('',(-1.42532809671464E-015,8.00000000000001,10.0));
#518=AXIS2_PLACEMENT_3D('',#637,#638,#639);
#519=AXIS2_PLACEMENT_3D('',#640,#641,#642);
#520=CARTESIAN_POINT('',(8.80000000000001,21.2450793488832,10.0));
#521=CARTESIAN_POINT('',(8.80000000000001,-3.6450793488832,10.0));
#522=CARTESIAN_POINT('',(8.80000000000001,9.83753776464564E-015,10.0));
#523=VECTOR('',#643,1.0);
#524=CARTESIAN_POINT('',(-8.80000000000001,3.64507934888322,10.0));
#525=CARTESIAN_POINT('',(6.0887301627792,18.5338095116624,10.0));
#526=VECTOR('',#644,1.0);
#527=CARTESIAN_POINT('',(-8.80000000000001,-21.2450793488832,10.0));
#528=CARTESIAN_POINT('',(-8.80000000000001,9.83753776464564E-015,10.0));
#529=VECTOR('',#645,1.0);
#530=CARTESIAN_POINT('',(-6.08873016277919,-18.5338095116624,10.0));
#531=VECTOR('',#646,1.0);
#532=COLOUR_RGB('',0.509803950786591,0.509803950786591,0.588235318660736);
#533=CARTESIAN_POINT('',(-1.24716208462531E-015,7.0,9.42264973081037));
#534=CARTESIAN_POINT('',(-1.32888400556384E-015,7.45868412263474,9.68747113248654));
#535=VECTOR('',#647,1.0);
#536=AXIS2_PLACEMENT_3D('',#648,#649,#650);
#537=CARTESIAN_POINT('',(1.32888400556384E-015,-7.45868412263472,9.68747113248654));
#538=VECTOR('',#651,1.0);
#539=COLOUR_RGB('',0.509803950786591,0.509803950786591,0.588235318660736);
#540=CARTESIAN_POINT('',(-8.80000000000001,-21.2450793488832,1.30084295790515E-015));
#541=CARTESIAN_POINT('',(-8.80000000000001,-21.2450793488832,-5.0));
#542=VECTOR('',#652,1.0);
#543=CARTESIAN_POINT('',(-8.80000000000001,3.64507934888322,-2.23189366541456E-016));
#544=CARTESIAN_POINT('',(-8.80000000000001,3.64507934888323,0.0));
#545=VECTOR('',#653,1.0);
#546=CARTESIAN_POINT('',(-8.80000000000001,9.22523458773445E-015,0.0));
#547=VECTOR('',#654,1.0);
#548=COLOUR_RGB('',0.509803950786591,0.509803950786591,0.588235318660736);
#549=CARTESIAN_POINT('',(14.0,26.4450793488832,-7.5));
#550=CARTESIAN_POINT('',(14.0,26.4450793488832,-1.77635683940025E-015));
#551=CARTESIAN_POINT('',(14.0,26.4450793488832,-8.75));
#552=VECTOR('',#655,1.0);
#553=CARTESIAN_POINT('',(14.0,1.55492065111679,0.0));
#554=CARTESIAN_POINT('',(14.0,9.22523458773445E-015,0.0));
#555=VECTOR('',#656,1.0);
#556=CARTESIAN_POINT('',(14.0,1.55492065111679,-7.5));
#557=CARTESIAN_POINT('',(14.0,1.55492065111679,-8.75));
#558=VECTOR('',#657,1.0);
#559=CARTESIAN_POINT('',(14.0,8.76600720505106E-015,-7.5));
#560=VECTOR('',#658,1.0);
#561=COLOUR_RGB('',0.509803950786591,0.509803950786591,0.588235318660736);
#562=CARTESIAN_POINT('',(11.5,23.9450793488832,-10.0));
#563=CARTESIAN_POINT('',(11.5,-0.945079348883237,-10.0));
#564=CARTESIAN_POINT('',(11.5,8.61293141082326E-015,-10.0));
#565=VECTOR('',#659,1.0);
#566=CARTESIAN_POINT('',(-11.4999999999999,-23.9450793488831,-10.0));
#567=CARTESIAN_POINT('',(-1.0137301627792,-13.4588095116624,-10.0));
#568=VECTOR('',#660,1.0);
#569=CARTESIAN_POINT('',(-11.4999999999999,0.945079348883297,-10.0));
#570=CARTESIAN_POINT('',(-11.4999999999999,8.61293141082326E-015,-10.0));
#571=VECTOR('',#661,1.0);
#572=CARTESIAN_POINT('',(1.01373016277921,13.4588095116625,-10.0));
#573=VECTOR('',#662,1.0);
#574=AXIS2_PLACEMENT_3D('',#663,#664,#665);
#575=COLOUR_RGB('',0.509803950786591,0.509803950786591,0.588235318660736);
#576=CARTESIAN_POINT('',(8.80000000000001,-3.6450793488832,2.23189366541456E-016));
#577=CARTESIAN_POINT('',(-0.388730162779195,-12.8338095116624,1.77635683940025E-015));
#578=VECTOR('',#666,1.0);
#579=CARTESIAN_POINT('',(8.80000000000001,21.2450793488832,-1.30084295790515E-015));
#580=CARTESIAN_POINT('',(7.38873016277919,19.8338095116624,-8.88178419700125E-016));
#581=VECTOR('',#667,1.0);
#582=CARTESIAN_POINT('',(8.80000000000001,9.22523458773445E-015,0.0));
#583=VECTOR('',#668,1.0);
#584=COLOUR_RGB('',0.509803950786591,0.509803950786591,0.588235318660736);
#585=AXIS2_PLACEMENT_3D('',#669,#670,#671);
#586=COLOUR_RGB('',0.509803950786591,0.509803950786591,0.588235318660736);
#587=CARTESIAN_POINT('',(-14.0,-1.55492065111676,-7.49999999999997));
#588=CARTESIAN_POINT('',(-3.99084655814713,8.45423279073611,-17.5091534418527));
#589=VECTOR('',#672,1.0);
#590=CARTESIAN_POINT('',(-14.0,-1.55492065111676,9.52082854523612E-017));
#591=CARTESIAN_POINT('',(-14.0,-1.55492065111676,-8.74999999999999));
#592=VECTOR('',#673,1.0);
#593=CARTESIAN_POINT('',(0.388730162779193,12.8338095116624,-8.88178419700125E-016));
#594=VECTOR('',#674,1.0);
#595=CARTESIAN_POINT('',(8.80000000000001,21.2450793488833,-5.0));
#596=VECTOR('',#675,1.0);
#597=CARTESIAN_POINT('',(8.34248677518612,20.7875661240694,-13.1575132248139));
#598=VECTOR('',#676,1.0);
#599=COLOUR_RGB('',0.509803950786591,0.509803950786591,0.588235318660736);
#600=COLOUR_RGB('',0.509803950786591,0.509803950786591,0.588235318660736);
#601=CARTESIAN_POINT('',(-14.0,-26.4450793488832,-7.49999999999997));
#602=CARTESIAN_POINT('',(-14.0,8.76600720505106E-015,-7.49999999999997));
#603=VECTOR('',#677,1.0);
#604=CARTESIAN_POINT('',(-14.0,-26.4450793488832,1.61924060989897E-015));
#605=CARTESIAN_POINT('',(-14.0,-26.4450793488832,-8.74999999999999));
#606=VECTOR('',#678,1.0);
#607=CARTESIAN_POINT('',(-14.0,9.22523458773445E-015,0.0));
#608=VECTOR('',#679,1.0);
#609=COLOUR_RGB('',0.509803950786591,0.509803950786591,0.588235318660736);
#610=CARTESIAN_POINT('',(-7.38873016277919,-19.8338095116624,1.77635683940025E-015));
#611=VECTOR('',#680,1.0);
#612=COLOUR_RGB('',0.509803950786591,0.509803950786591,0.588235318660736);
#613=CARTESIAN_POINT('',(3.15751322481386,-9.28756612406936,-18.3424867751861));
#614=VECTOR('',#681,1.0);
#615=COLOUR_RGB('',0.509803950786591,0.509803950786591,0.588235318660736);
#616=CARTESIAN_POINT('',(-8.34248677518606,-20.7875661240693,-13.1575132248138));
#617=VECTOR('',#682,1.0);
#618=COLOUR_RGB('',0.509803950786591,0.509803950786591,0.588235318660736);
#619=CARTESIAN_POINT('',(8.80000000000001,-3.6450793488832,0.0));
#620=VECTOR('',#683,1.0);
#621=COLOUR_RGB('',0.509803950786591,0.509803950786591,0.588235318660736);
#622=COLOUR_RGB('',0.509803950786591,0.509803950786591,0.588235318660736);
#623=DIRECTION('',(-0.0,-0.0,1.0));
#624=CARTESIAN_POINT('',(0.0,0.0,-10.0));
#625=DIRECTION('',(-0.0,6.12303176911189E-017,1.0));
#626=DIRECTION('',(1.0,0.0,0.0));
#627=DIRECTION('',(-0.0,-0.0,-1.0));
#628=CARTESIAN_POINT('',(0.0,0.0,9.42264973081037));
#629=DIRECTION('',(0.0,0.0,1.0));
#630=DIRECTION('',(1.0,0.0,0.0));
#631=CARTESIAN_POINT('',(0.0,0.0,9.42264973081037));
#632=DIRECTION('',(0.0,0.0,1.0));
#633=DIRECTION('',(1.0,0.0,0.0));
#634=CARTESIAN_POINT('',(0.0,9.83753776464564E-015,10.0));
#635=DIRECTION('',(1.12256117823872E-049,-6.12303176911189E-017,-1.0));
#636=DIRECTION('',(-5.57053767070927E-017,1.0,-6.12303176911189E-017));
#637=CARTESIAN_POINT('',(0.0,9.83753776464564E-015,10.0));
#638=DIRECTION('',(1.12256117823872E-049,-6.12303176911189E-017,-1.0));
#639=DIRECTION('',(-5.57053767070927E-017,1.0,-6.12303176911189E-017));
#640=CARTESIAN_POINT('',(0.0,9.83753776464564E-015,10.0));
#641=DIRECTION('',(1.12256117823872E-049,-6.12303176911189E-017,-1.0));
#642=DIRECTION('',(-5.57053767070927E-017,1.0,-6.12303176911189E-017));
#643=DIRECTION('',(0.0,-1.0,6.12303176911189E-017));
#644=DIRECTION('',(-0.707106781186548,-0.707106781186548,4.32963728535968E-017));
#645=DIRECTION('',(0.0,-1.0,6.12303176911189E-017));
#646=DIRECTION('',(0.707106781186547,0.707106781186548,-4.32963728535968E-017));
#647=DIRECTION('',(-1.54296292560326E-016,0.866025403784439,0.5));
#648=CARTESIAN_POINT('',(0.0,0.0,9.42264973081037));
#649=DIRECTION('',(0.0,0.0,1.0));
#650=DIRECTION('',(1.0,0.0,0.0));
#651=DIRECTION('',(-1.54296292560326E-016,0.866025403784439,-0.5));
#652=DIRECTION('',(0.0,0.0,1.0));
#653=DIRECTION('',(0.0,0.0,-1.0));
#654=DIRECTION('',(0.0,-1.0,6.12303176911189E-017));
#655=DIRECTION('',(0.0,0.0,1.0));
#656=DIRECTION('',(0.0,1.0,-6.12303176911189E-017));
#657=DIRECTION('',(0.0,0.0,-1.0));
#658=DIRECTION('',(0.0,1.0,-6.12303176911189E-017));
#659=DIRECTION('',(0.0,-1.0,6.12303176911189E-017));
#660=DIRECTION('',(-0.707106781186547,-0.707106781186548,4.32963728535968E-017));
#661=DIRECTION('',(0.0,-1.0,6.12303176911189E-017));
#662=DIRECTION('',(0.707106781186548,0.707106781186548,-4.32963728535968E-017));
#663=CARTESIAN_POINT('',(0.0,0.0,-10.0));
#664=DIRECTION('',(-0.0,6.12303176911189E-017,1.0));
#665=DIRECTION('',(1.0,0.0,0.0));
#666=DIRECTION('',(0.707106781186547,0.707106781186548,-4.32963728535968E-017));
#667=DIRECTION('',(-0.707106781186548,-0.707106781186548,4.32963728535968E-017));
#668=DIRECTION('',(0.0,-1.0,6.12303176911189E-017));
#669=CARTESIAN_POINT('',(0.0,0.0,9.42264973081037));
#670=DIRECTION('',(0.0,0.0,1.0));
#671=DIRECTION('',(1.0,0.0,0.0));
#672=DIRECTION('',(0.577350269189628,0.577350269189628,-0.577350269189621));
#673=DIRECTION('',(0.0,0.0,-1.0));
#674=DIRECTION('',(-0.707106781186548,-0.707106781186548,4.32963728535968E-017));
#675=DIRECTION('',(0.0,0.0,1.0));
#676=DIRECTION('',(0.577350269189626,0.577350269189626,0.577350269189626));
#677=DIRECTION('',(0.0,-1.0,6.12303176911189E-017));
#678=DIRECTION('',(0.0,0.0,1.0));
#679=DIRECTION('',(0.0,-1.0,6.12303176911189E-017));
#680=DIRECTION('',(0.707106781186547,0.707106781186548,-4.32963728535968E-017));
#681=DIRECTION('',(-0.577350269189626,-0.577350269189626,-0.577350269189626));
#682=DIRECTION('',(-0.577350269189628,-0.577350269189628,0.577350269189621));
#683=DIRECTION('',(0.0,0.0,-1.0));
ENDSEC;
END-ISO-10303-21;
