ISO-10303-21;
HEADER;
FILE_DESCRIPTION(('STEP AP214'),'1');
FILE_NAME('C:/temp/halder/09_10_2014/CAD/Temp/HALDERN_EH_23020_0660.stp','2014-10-09T11:17:38',('TraceParts'),('TraceParts S.A.'),'Spatial InterOp 3D',' ',' ');
FILE_SCHEMA(('automotive_design'));
ENDSEC;
DATA;
#1=MECHANICAL_DESIGN_GEOMETRIC_PRESENTATION_REPRESENTATION(' ',(#10,#11,#12,#13,#14,#15,#16,#17,#18,#19,#20,#21,#22,#23,#24,#25,#26),#6);
#2=PRODUCT_DEFINITION_CONTEXT('',#27,'design');
#3=APPLICATION_PROTOCOL_DEFINITION('INTERNATIONAL STANDARD','automotive_design',1994,#27);
#4=PRODUCT_CATEGORY_RELATIONSHIP('NONE','NONE',#28,#29);
#5=SHAPE_DEFINITION_REPRESENTATION(#30,#31);
#6= (GEOMETRIC_REPRESENTATION_CONTEXT(3)GLOBAL_UNCERTAINTY_ASSIGNED_CONTEXT((#34))GLOBAL_UNIT_ASSIGNED_CONTEXT((#36,#37,#38))REPRESENTATION_CONTEXT('NONE','WORKSPACE'));
#10=STYLED_ITEM('',(#40),#41);
#11=STYLED_ITEM('',(#42),#43);
#12=STYLED_ITEM('',(#44),#45);
#13=STYLED_ITEM('',(#46),#47);
#14=STYLED_ITEM('',(#48),#49);
#15=STYLED_ITEM('',(#50),#51);
#16=STYLED_ITEM('',(#52),#53);
#17=STYLED_ITEM('',(#54),#55);
#18=STYLED_ITEM('',(#56),#57);
#19=STYLED_ITEM('',(#58),#59);
#20=STYLED_ITEM('',(#60),#61);
#21=STYLED_ITEM('',(#62),#63);
#22=STYLED_ITEM('',(#64),#65);
#23=STYLED_ITEM('',(#66),#67);
#24=STYLED_ITEM('',(#68),#69);
#25=STYLED_ITEM('',(#70),#71);
#26=STYLED_ITEM('',(#72),#73);
#27=APPLICATION_CONTEXT(' ');
#28=PRODUCT_CATEGORY('part','NONE');
#29=PRODUCT_RELATED_PRODUCT_CATEGORY('detail',' ',(#74));
#30=PRODUCT_DEFINITION_SHAPE('NONE','NONE',#75);
#31=ADVANCED_BREP_SHAPE_REPRESENTATION('1',(#59,#76),#6);
#34=UNCERTAINTY_MEASURE_WITH_UNIT(LENGTH_MEASURE(1.0E-006),#36,'','');
#36= (CONVERSION_BASED_UNIT('MILLIMETRE',#79)LENGTH_UNIT()NAMED_UNIT(#82));
#37= (NAMED_UNIT(#84)PLANE_ANGLE_UNIT()SI_UNIT($,.RADIAN.));
#38= (NAMED_UNIT(#84)SOLID_ANGLE_UNIT()SI_UNIT($,.STERADIAN.));
#40=PRESENTATION_STYLE_ASSIGNMENT((#90));
#41=ADVANCED_FACE('',(#91),#92,.F.);
#42=PRESENTATION_STYLE_ASSIGNMENT((#93));
#43=ADVANCED_FACE('',(#94,#95),#96,.T.);
#44=PRESENTATION_STYLE_ASSIGNMENT((#97));
#45=ADVANCED_FACE('',(#98,#99),#100,.T.);
#46=PRESENTATION_STYLE_ASSIGNMENT((#101));
#47=ADVANCED_FACE('',(#102),#103,.F.);
#48=PRESENTATION_STYLE_ASSIGNMENT((#104));
#49=ADVANCED_FACE('',(#105),#106,.T.);
#50=PRESENTATION_STYLE_ASSIGNMENT((#107));
#51=ADVANCED_FACE('',(#108),#109,.F.);
#52=PRESENTATION_STYLE_ASSIGNMENT((#110));
#53=ADVANCED_FACE('',(#111),#112,.T.);
#54=PRESENTATION_STYLE_ASSIGNMENT((#113));
#55=ADVANCED_FACE('',(#114),#115,.F.);
#56=PRESENTATION_STYLE_ASSIGNMENT((#116));
#57=ADVANCED_FACE('',(#117),#118,.T.);
#58=PRESENTATION_STYLE_ASSIGNMENT((#119));
#59=MANIFOLD_SOLID_BREP('1',#120);
#60=PRESENTATION_STYLE_ASSIGNMENT((#121));
#61=ADVANCED_FACE('',(#122),#123,.T.);
#62=PRESENTATION_STYLE_ASSIGNMENT((#124));
#63=ADVANCED_FACE('',(#125),#126,.F.);
#64=PRESENTATION_STYLE_ASSIGNMENT((#127));
#65=ADVANCED_FACE('',(#128),#129,.T.);
#66=PRESENTATION_STYLE_ASSIGNMENT((#130));
#67=ADVANCED_FACE('',(#131),#132,.T.);
#68=PRESENTATION_STYLE_ASSIGNMENT((#133));
#69=ADVANCED_FACE('',(#134),#135,.T.);
#70=PRESENTATION_STYLE_ASSIGNMENT((#136));
#71=ADVANCED_FACE('',(#137),#138,.T.);
#72=PRESENTATION_STYLE_ASSIGNMENT((#139));
#73=ADVANCED_FACE('',(#140),#141,.F.);
#74=PRODUCT('1','1','PART-1-DESC',(#142));
#75=PRODUCT_DEFINITION('NONE','NONE',#143,#2);
#76=AXIS2_PLACEMENT_3D('',#144,#145,#146);
#79=LENGTH_MEASURE_WITH_UNIT(LENGTH_MEASURE(1.0),#147);
#82=DIMENSIONAL_EXPONENTS(1.0,0.0,0.0,0.0,0.0,0.0,0.0);
#84=DIMENSIONAL_EXPONENTS(0.0,0.0,0.0,0.0,0.0,0.0,0.0);
#90=SURFACE_STYLE_USAGE(.BOTH.,#148);
#91=FACE_OUTER_BOUND('',#149,.T.);
#92=PLANE('',#150);
#93=SURFACE_STYLE_USAGE(.BOTH.,#151);
#94=FACE_BOUND('',#152,.T.);
#95=FACE_OUTER_BOUND('',#153,.T.);
#96=PLANE('',#154);
#97=SURFACE_STYLE_USAGE(.BOTH.,#155);
#98=FACE_OUTER_BOUND('',#156,.T.);
#99=FACE_BOUND('',#157,.T.);
#100=PLANE('',#158);
#101=SURFACE_STYLE_USAGE(.BOTH.,#159);
#102=FACE_OUTER_BOUND('',#160,.T.);
#103=CYLINDRICAL_SURFACE('',#161,6.0);
#104=SURFACE_STYLE_USAGE(.BOTH.,#162);
#105=FACE_OUTER_BOUND('',#163,.T.);
#106=PLANE('',#164);
#107=SURFACE_STYLE_USAGE(.BOTH.,#165);
#108=FACE_OUTER_BOUND('',#166,.T.);
#109=CONICAL_SURFACE('',#167,6.45868412263473,1.0471975511966);
#110=SURFACE_STYLE_USAGE(.BOTH.,#168);
#111=FACE_OUTER_BOUND('',#169,.T.);
#112=PLANE('',#170);
#113=SURFACE_STYLE_USAGE(.BOTH.,#171);
#114=FACE_OUTER_BOUND('',#172,.T.);
#115=CONICAL_SURFACE('',#173,6.45868412263473,1.0471975511966);
#116=SURFACE_STYLE_USAGE(.BOTH.,#174);
#117=FACE_OUTER_BOUND('',#175,.T.);
#118=PLANE('',#176);
#119=SURFACE_STYLE_USAGE(.BOTH.,#177);
#120=CLOSED_SHELL('',(#63,#51,#71,#73,#41,#49,#53,#43,#61,#65,#55,#47,#45,#69,#67,#57));
#121=SURFACE_STYLE_USAGE(.BOTH.,#178);
#122=FACE_OUTER_BOUND('',#179,.T.);
#123=PLANE('',#180);
#124=SURFACE_STYLE_USAGE(.BOTH.,#181);
#125=FACE_OUTER_BOUND('',#182,.T.);
#126=CYLINDRICAL_SURFACE('',#183,6.0);
#127=SURFACE_STYLE_USAGE(.BOTH.,#184);
#128=FACE_OUTER_BOUND('',#185,.T.);
#129=PLANE('',#186);
#130=SURFACE_STYLE_USAGE(.BOTH.,#187);
#131=FACE_OUTER_BOUND('',#188,.T.);
#132=PLANE('',#189);
#133=SURFACE_STYLE_USAGE(.BOTH.,#190);
#134=FACE_OUTER_BOUND('',#191,.T.);
#135=PLANE('',#192);
#136=SURFACE_STYLE_USAGE(.BOTH.,#193);
#137=FACE_OUTER_BOUND('',#194,.T.);
#138=PLANE('',#195);
#139=SURFACE_STYLE_USAGE(.BOTH.,#196);
#140=FACE_OUTER_BOUND('',#197,.T.);
#141=PLANE('',#198);
#142=PRODUCT_CONTEXT('',#27,'mechanical');
#143=PRODUCT_DEFINITION_FORMATION_WITH_SPECIFIED_SOURCE(' ','NONE',#74,.NOT_KNOWN.);
#144=CARTESIAN_POINT('',(0.0,0.0,0.0));
#145=DIRECTION('',(0.0,0.0,1.0));
#146=DIRECTION('',(1.0,0.0,0.0));
#147= (NAMED_UNIT(#82)LENGTH_UNIT()SI_UNIT(.MILLI.,.METRE.));
#148=SURFACE_SIDE_STYLE('',(#200));
#149=EDGE_LOOP('',(#201,#202,#203,#204,#205,#206,#207,#208,#209,#210));
#150=AXIS2_PLACEMENT_3D('',#211,#212,#213);
#151=SURFACE_SIDE_STYLE('',(#214));
#152=EDGE_LOOP('',(#215,#216,#217));
#153=EDGE_LOOP('',(#218,#219,#220,#221));
#154=AXIS2_PLACEMENT_3D('',#222,#223,#224);
#155=SURFACE_SIDE_STYLE('',(#225));
#156=EDGE_LOOP('',(#226,#227,#228,#229));
#157=EDGE_LOOP('',(#230,#231));
#158=AXIS2_PLACEMENT_3D('',#232,#233,#234);
#159=SURFACE_SIDE_STYLE('',(#235));
#160=EDGE_LOOP('',(#236,#237,#238,#239,#240));
#161=AXIS2_PLACEMENT_3D('',#241,#242,#243);
#162=SURFACE_SIDE_STYLE('',(#244));
#163=EDGE_LOOP('',(#245,#246,#247,#248));
#164=AXIS2_PLACEMENT_3D('',#249,#250,#251);
#165=SURFACE_SIDE_STYLE('',(#252));
#166=EDGE_LOOP('',(#253,#254,#255,#256,#257,#258));
#167=AXIS2_PLACEMENT_3D('',#259,#260,#261);
#168=SURFACE_SIDE_STYLE('',(#262));
#169=EDGE_LOOP('',(#263,#264,#265,#266));
#170=AXIS2_PLACEMENT_3D('',#267,#268,#269);
#171=SURFACE_SIDE_STYLE('',(#270));
#172=EDGE_LOOP('',(#271,#272,#273,#274,#275));
#173=AXIS2_PLACEMENT_3D('',#276,#277,#278);
#174=SURFACE_SIDE_STYLE('',(#279));
#175=EDGE_LOOP('',(#280,#281,#282,#283));
#176=AXIS2_PLACEMENT_3D('',#284,#285,#286);
#177=SURFACE_SIDE_STYLE('',(#287));
#178=SURFACE_SIDE_STYLE('',(#288));
#179=EDGE_LOOP('',(#289,#290,#291,#292));
#180=AXIS2_PLACEMENT_3D('',#293,#294,#295);
#181=SURFACE_SIDE_STYLE('',(#296));
#182=EDGE_LOOP('',(#297,#298,#299,#300,#301));
#183=AXIS2_PLACEMENT_3D('',#302,#303,#304);
#184=SURFACE_SIDE_STYLE('',(#305));
#185=EDGE_LOOP('',(#306,#307,#308,#309));
#186=AXIS2_PLACEMENT_3D('',#310,#311,#312);
#187=SURFACE_SIDE_STYLE('',(#313));
#188=EDGE_LOOP('',(#314,#315,#316,#317));
#189=AXIS2_PLACEMENT_3D('',#318,#319,#320);
#190=SURFACE_SIDE_STYLE('',(#321));
#191=EDGE_LOOP('',(#322,#323,#324,#325));
#192=AXIS2_PLACEMENT_3D('',#326,#327,#328);
#193=SURFACE_SIDE_STYLE('',(#329));
#194=EDGE_LOOP('',(#330,#331,#332,#333));
#195=AXIS2_PLACEMENT_3D('',#334,#335,#336);
#196=SURFACE_SIDE_STYLE('',(#337));
#197=EDGE_LOOP('',(#338,#339,#340,#341,#342,#343,#344,#345,#346,#347));
#198=AXIS2_PLACEMENT_3D('',#348,#349,#350);
#200=SURFACE_STYLE_FILL_AREA(#351);
#201=ORIENTED_EDGE('',*,*,#352,.F.);
#202=ORIENTED_EDGE('',*,*,#353,.F.);
#203=ORIENTED_EDGE('',*,*,#354,.F.);
#204=ORIENTED_EDGE('',*,*,#355,.F.);
#205=ORIENTED_EDGE('',*,*,#356,.F.);
#206=ORIENTED_EDGE('',*,*,#357,.F.);
#207=ORIENTED_EDGE('',*,*,#358,.F.);
#208=ORIENTED_EDGE('',*,*,#359,.F.);
#209=ORIENTED_EDGE('',*,*,#360,.F.);
#210=ORIENTED_EDGE('',*,*,#361,.F.);
#211=CARTESIAN_POINT('',(-12.5,-23.5308657865101,-9.0));
#212=DIRECTION('',(-0.707106781186548,0.707106781186548,0.0));
#213=DIRECTION('',(0.0,0.0,1.0));
#214=SURFACE_STYLE_FILL_AREA(#362);
#215=ORIENTED_EDGE('',*,*,#363,.T.);
#216=ORIENTED_EDGE('',*,*,#364,.T.);
#217=ORIENTED_EDGE('',*,*,#365,.T.);
#218=ORIENTED_EDGE('',*,*,#366,.F.);
#219=ORIENTED_EDGE('',*,*,#367,.T.);
#220=ORIENTED_EDGE('',*,*,#368,.T.);
#221=ORIENTED_EDGE('',*,*,#360,.T.);
#222=CARTESIAN_POINT('',(-7.80000000000001,9.77630744695452E-015,9.0));
#223=DIRECTION('',(0.0,6.12303176911189E-017,1.0));
#224=DIRECTION('',(0.0,-1.0,6.12303176911189E-017));
#225=SURFACE_STYLE_FILL_AREA(#369);
#226=ORIENTED_EDGE('',*,*,#370,.T.);
#227=ORIENTED_EDGE('',*,*,#355,.T.);
#228=ORIENTED_EDGE('',*,*,#371,.F.);
#229=ORIENTED_EDGE('',*,*,#372,.T.);
#230=ORIENTED_EDGE('',*,*,#373,.T.);
#231=ORIENTED_EDGE('',*,*,#374,.T.);
#232=CARTESIAN_POINT('',(9.99999999999997,8.67416172851438E-015,-9.00000000000003));
#233=DIRECTION('',(0.0,-6.12303176911189E-017,-1.0));
#234=DIRECTION('',(0.0,1.0,-6.12303176911189E-017));
#235=SURFACE_STYLE_FILL_AREA(#375);
#236=ORIENTED_EDGE('',*,*,#376,.T.);
#237=ORIENTED_EDGE('',*,*,#377,.T.);
#238=ORIENTED_EDGE('',*,*,#378,.T.);
#239=ORIENTED_EDGE('',*,*,#379,.T.);
#240=ORIENTED_EDGE('',*,*,#373,.F.);
#241=CARTESIAN_POINT('',(0.0,0.0,9.00000000000003));
#242=DIRECTION('',(0.0,0.0,-1.0));
#243=DIRECTION('',(1.0,0.0,0.0));
#244=SURFACE_STYLE_FILL_AREA(#380);
#245=ORIENTED_EDGE('',*,*,#381,.T.);
#246=ORIENTED_EDGE('',*,*,#382,.T.);
#247=ORIENTED_EDGE('',*,*,#352,.T.);
#248=ORIENTED_EDGE('',*,*,#383,.F.);
#249=CARTESIAN_POINT('',(-12.5,9.22523458773445E-015,0.0));
#250=DIRECTION('',(0.0,6.12303176911189E-017,1.0));
#251=DIRECTION('',(0.0,-1.0,6.12303176911189E-017));
#252=SURFACE_STYLE_FILL_AREA(#384);
#253=ORIENTED_EDGE('',*,*,#385,.F.);
#254=ORIENTED_EDGE('',*,*,#377,.F.);
#255=ORIENTED_EDGE('',*,*,#386,.F.);
#256=ORIENTED_EDGE('',*,*,#387,.F.);
#257=ORIENTED_EDGE('',*,*,#363,.F.);
#258=ORIENTED_EDGE('',*,*,#365,.F.);
#259=CARTESIAN_POINT('',(0.0,9.77630744695452E-015,8.68747113248654));
#260=DIRECTION('',(-0.0,-0.0,1.0));
#261=DIRECTION('',(-5.47719046450065E-017,1.0,0.0));
#262=SURFACE_STYLE_FILL_AREA(#388);
#263=ORIENTED_EDGE('',*,*,#361,.T.);
#264=ORIENTED_EDGE('',*,*,#368,.F.);
#265=ORIENTED_EDGE('',*,*,#389,.T.);
#266=ORIENTED_EDGE('',*,*,#383,.T.);
#267=CARTESIAN_POINT('',(-7.80000000000001,9.22523458773445E-015,0.0));
#268=DIRECTION('',(-1.0,0.0,0.0));
#269=DIRECTION('',(0.0,-1.0,6.12303176911189E-017));
#270=SURFACE_STYLE_FILL_AREA(#390);
#271=ORIENTED_EDGE('',*,*,#385,.T.);
#272=ORIENTED_EDGE('',*,*,#364,.F.);
#273=ORIENTED_EDGE('',*,*,#387,.T.);
#274=ORIENTED_EDGE('',*,*,#391,.F.);
#275=ORIENTED_EDGE('',*,*,#378,.F.);
#276=CARTESIAN_POINT('',(0.0,9.77630744695452E-015,8.68747113248654));
#277=DIRECTION('',(-0.0,-0.0,1.0));
#278=DIRECTION('',(-5.47719046450065E-017,1.0,0.0));
#279=SURFACE_STYLE_FILL_AREA(#392);
#280=ORIENTED_EDGE('',*,*,#393,.T.);
#281=ORIENTED_EDGE('',*,*,#394,.T.);
#282=ORIENTED_EDGE('',*,*,#353,.T.);
#283=ORIENTED_EDGE('',*,*,#382,.F.);
#284=CARTESIAN_POINT('',(-12.5,8.82723752274218E-015,-6.49999999999997));
#285=DIRECTION('',(-1.0,0.0,0.0));
#286=DIRECTION('',(0.0,-1.0,6.12303176911189E-017));
#287=SURFACE_STYLE_FILL_AREA(#395);
#288=SURFACE_STYLE_FILL_AREA(#396);
#289=ORIENTED_EDGE('',*,*,#359,.T.);
#290=ORIENTED_EDGE('',*,*,#397,.F.);
#291=ORIENTED_EDGE('',*,*,#398,.T.);
#292=ORIENTED_EDGE('',*,*,#366,.T.);
#293=CARTESIAN_POINT('',(7.80000000000001,9.77630744695452E-015,9.0));
#294=DIRECTION('',(1.0,0.0,0.0));
#295=DIRECTION('',(0.0,1.0,-6.12303176911189E-017));
#296=SURFACE_STYLE_FILL_AREA(#399);
#297=ORIENTED_EDGE('',*,*,#376,.F.);
#298=ORIENTED_EDGE('',*,*,#374,.F.);
#299=ORIENTED_EDGE('',*,*,#379,.F.);
#300=ORIENTED_EDGE('',*,*,#391,.T.);
#301=ORIENTED_EDGE('',*,*,#386,.T.);
#302=CARTESIAN_POINT('',(0.0,0.0,9.00000000000003));
#303=DIRECTION('',(0.0,0.0,-1.0));
#304=DIRECTION('',(1.0,0.0,0.0));
#305=SURFACE_STYLE_FILL_AREA(#400);
#306=ORIENTED_EDGE('',*,*,#358,.T.);
#307=ORIENTED_EDGE('',*,*,#401,.T.);
#308=ORIENTED_EDGE('',*,*,#402,.T.);
#309=ORIENTED_EDGE('',*,*,#397,.T.);
#310=CARTESIAN_POINT('',(7.80000000000001,9.22523458773445E-015,0.0));
#311=DIRECTION('',(0.0,6.12303176911189E-017,1.0));
#312=DIRECTION('',(0.0,-1.0,6.12303176911189E-017));
#313=SURFACE_STYLE_FILL_AREA(#403);
#314=ORIENTED_EDGE('',*,*,#404,.T.);
#315=ORIENTED_EDGE('',*,*,#371,.T.);
#316=ORIENTED_EDGE('',*,*,#354,.T.);
#317=ORIENTED_EDGE('',*,*,#394,.F.);
#318=CARTESIAN_POINT('',(-9.99999999999989,8.67416172851438E-015,-9.00000000000003));
#319=DIRECTION('',(-0.707106781186539,-4.32963728535973E-017,-0.707106781186556));
#320=DIRECTION('',(1.4661038551173E-033,-1.0,6.12303176911189E-017));
#321=SURFACE_STYLE_FILL_AREA(#405);
#322=ORIENTED_EDGE('',*,*,#356,.T.);
#323=ORIENTED_EDGE('',*,*,#370,.F.);
#324=ORIENTED_EDGE('',*,*,#406,.T.);
#325=ORIENTED_EDGE('',*,*,#407,.F.);
#326=CARTESIAN_POINT('',(12.5,8.82723752274218E-015,-6.5));
#327=DIRECTION('',(0.707106781186548,-4.32963728535968E-017,-0.707106781186548));
#328=DIRECTION('',(-1.07031965039769E-033,1.0,-6.12303176911189E-017));
#329=SURFACE_STYLE_FILL_AREA(#408);
#330=ORIENTED_EDGE('',*,*,#409,.T.);
#331=ORIENTED_EDGE('',*,*,#401,.F.);
#332=ORIENTED_EDGE('',*,*,#357,.T.);
#333=ORIENTED_EDGE('',*,*,#407,.T.);
#334=CARTESIAN_POINT('',(12.5,8.82723752274218E-015,-6.5));
#335=DIRECTION('',(1.0,0.0,0.0));
#336=DIRECTION('',(0.0,1.0,-6.12303176911189E-017));
#337=SURFACE_STYLE_FILL_AREA(#410);
#338=ORIENTED_EDGE('',*,*,#404,.F.);
#339=ORIENTED_EDGE('',*,*,#393,.F.);
#340=ORIENTED_EDGE('',*,*,#381,.F.);
#341=ORIENTED_EDGE('',*,*,#389,.F.);
#342=ORIENTED_EDGE('',*,*,#367,.F.);
#343=ORIENTED_EDGE('',*,*,#398,.F.);
#344=ORIENTED_EDGE('',*,*,#402,.F.);
#345=ORIENTED_EDGE('',*,*,#409,.F.);
#346=ORIENTED_EDGE('',*,*,#406,.F.);
#347=ORIENTED_EDGE('',*,*,#372,.F.);
#348=CARTESIAN_POINT('',(12.5,23.5308657865102,-9.0));
#349=DIRECTION('',(0.707106781186548,-0.707106781186547,0.0));
#350=DIRECTION('',(0.0,0.0,-1.0));
#351=FILL_AREA_STYLE('',(#411));
#352=EDGE_CURVE('',#412,#413,#414,.T.);
#353=EDGE_CURVE('',#415,#412,#416,.T.);
#354=EDGE_CURVE('',#417,#415,#418,.T.);
#355=EDGE_CURVE('',#419,#417,#420,.T.);
#356=EDGE_CURVE('',#421,#419,#422,.T.);
#357=EDGE_CURVE('',#423,#421,#424,.T.);
#358=EDGE_CURVE('',#425,#423,#426,.T.);
#359=EDGE_CURVE('',#427,#425,#428,.T.);
#360=EDGE_CURVE('',#429,#427,#430,.T.);
#361=EDGE_CURVE('',#413,#429,#431,.T.);
#362=FILL_AREA_STYLE('',(#432));
#363=EDGE_CURVE('',#433,#434,#435,.T.);
#364=EDGE_CURVE('',#434,#436,#437,.T.);
#365=EDGE_CURVE('',#436,#433,#438,.T.);
#366=EDGE_CURVE('',#439,#427,#440,.T.);
#367=EDGE_CURVE('',#439,#441,#442,.T.);
#368=EDGE_CURVE('',#441,#429,#443,.T.);
#369=FILL_AREA_STYLE('',(#444));
#370=EDGE_CURVE('',#445,#419,#446,.T.);
#371=EDGE_CURVE('',#447,#417,#448,.T.);
#372=EDGE_CURVE('',#447,#445,#449,.T.);
#373=EDGE_CURVE('',#450,#451,#452,.T.);
#374=EDGE_CURVE('',#451,#450,#453,.T.);
#375=FILL_AREA_STYLE('',(#454));
#376=EDGE_CURVE('',#450,#455,#456,.T.);
#377=EDGE_CURVE('',#455,#457,#458,.T.);
#378=EDGE_CURVE('',#457,#459,#460,.T.);
#379=EDGE_CURVE('',#459,#451,#461,.T.);
#380=FILL_AREA_STYLE('',(#462));
#381=EDGE_CURVE('',#463,#464,#465,.T.);
#382=EDGE_CURVE('',#464,#412,#466,.T.);
#383=EDGE_CURVE('',#463,#413,#467,.T.);
#384=FILL_AREA_STYLE('',(#468));
#385=EDGE_CURVE('',#457,#436,#469,.T.);
#386=EDGE_CURVE('',#470,#455,#471,.T.);
#387=EDGE_CURVE('',#434,#470,#472,.T.);
#388=FILL_AREA_STYLE('',(#473));
#389=EDGE_CURVE('',#441,#463,#474,.T.);
#390=FILL_AREA_STYLE('',(#475));
#391=EDGE_CURVE('',#459,#470,#476,.T.);
#392=FILL_AREA_STYLE('',(#477));
#393=EDGE_CURVE('',#464,#478,#479,.T.);
#394=EDGE_CURVE('',#478,#415,#480,.T.);
#395=FILL_AREA_STYLE('',(#481));
#396=FILL_AREA_STYLE('',(#482));
#397=EDGE_CURVE('',#483,#425,#484,.T.);
#398=EDGE_CURVE('',#483,#439,#485,.T.);
#399=FILL_AREA_STYLE('',(#486));
#400=FILL_AREA_STYLE('',(#487));
#401=EDGE_CURVE('',#423,#488,#489,.T.);
#402=EDGE_CURVE('',#488,#483,#490,.T.);
#403=FILL_AREA_STYLE('',(#491));
#404=EDGE_CURVE('',#478,#447,#492,.T.);
#405=FILL_AREA_STYLE('',(#493));
#406=EDGE_CURVE('',#445,#494,#495,.T.);
#407=EDGE_CURVE('',#421,#494,#496,.T.);
#408=FILL_AREA_STYLE('',(#497));
#409=EDGE_CURVE('',#494,#488,#498,.T.);
#410=FILL_AREA_STYLE('',(#499));
#411=FILL_AREA_STYLE_COLOUR('',#500);
#412=VERTEX_POINT('',#501);
#413=VERTEX_POINT('',#502);
#414=LINE('',#503,#504);
#415=VERTEX_POINT('',#505);
#416=LINE('',#506,#507);
#417=VERTEX_POINT('',#508);
#418=LINE('',#509,#510);
#419=VERTEX_POINT('',#511);
#420=LINE('',#512,#513);
#421=VERTEX_POINT('',#514);
#422=LINE('',#515,#516);
#423=VERTEX_POINT('',#517);
#424=LINE('',#518,#519);
#425=VERTEX_POINT('',#520);
#426=LINE('',#521,#522);
#427=VERTEX_POINT('',#523);
#428=LINE('',#524,#525);
#429=VERTEX_POINT('',#526);
#430=LINE('',#527,#528);
#431=LINE('',#529,#530);
#432=FILL_AREA_STYLE_COLOUR('',#531);
#433=VERTEX_POINT('',#532);
#434=VERTEX_POINT('',#533);
#435=CIRCLE('',#534,7.0);
#436=VERTEX_POINT('',#535);
#437=CIRCLE('',#536,7.0);
#438=CIRCLE('',#537,7.0);
#439=VERTEX_POINT('',#538);
#440=LINE('',#539,#540);
#441=VERTEX_POINT('',#541);
#442=LINE('',#542,#543);
#443=LINE('',#544,#545);
#444=FILL_AREA_STYLE_COLOUR('',#546);
#445=VERTEX_POINT('',#547);
#446=LINE('',#548,#549);
#447=VERTEX_POINT('',#550);
#448=LINE('',#551,#552);
#449=LINE('',#553,#554);
#450=VERTEX_POINT('',#555);
#451=VERTEX_POINT('',#556);
#452=CIRCLE('',#557,6.0);
#453=CIRCLE('',#558,6.0);
#454=FILL_AREA_STYLE_COLOUR('',#559);
#455=VERTEX_POINT('',#560);
#456=LINE('',#561,#562);
#457=VERTEX_POINT('',#563);
#458=CIRCLE('',#564,6.0);
#459=VERTEX_POINT('',#565);
#460=CIRCLE('',#566,6.0);
#461=LINE('',#567,#568);
#462=FILL_AREA_STYLE_COLOUR('',#569);
#463=VERTEX_POINT('',#570);
#464=VERTEX_POINT('',#571);
#465=LINE('',#572,#573);
#466=LINE('',#574,#575);
#467=LINE('',#576,#577);
#468=FILL_AREA_STYLE_COLOUR('',#578);
#469=LINE('',#579,#580);
#470=VERTEX_POINT('',#581);
#471=CIRCLE('',#582,6.0);
#472=LINE('',#583,#584);
#473=FILL_AREA_STYLE_COLOUR('',#585);
#474=LINE('',#586,#587);
#475=FILL_AREA_STYLE_COLOUR('',#588);
#476=CIRCLE('',#589,6.0);
#477=FILL_AREA_STYLE_COLOUR('',#590);
#478=VERTEX_POINT('',#591);
#479=LINE('',#592,#593);
#480=LINE('',#594,#595);
#481=FILL_AREA_STYLE_COLOUR('',#596);
#482=FILL_AREA_STYLE_COLOUR('',#597);
#483=VERTEX_POINT('',#598);
#484=LINE('',#599,#600);
#485=LINE('',#601,#602);
#486=FILL_AREA_STYLE_COLOUR('',#603);
#487=FILL_AREA_STYLE_COLOUR('',#604);
#488=VERTEX_POINT('',#605);
#489=LINE('',#606,#607);
#490=LINE('',#608,#609);
#491=FILL_AREA_STYLE_COLOUR('',#610);
#492=LINE('',#611,#612);
#493=FILL_AREA_STYLE_COLOUR('',#613);
#494=VERTEX_POINT('',#614);
#495=LINE('',#615,#616);
#496=LINE('',#617,#618);
#497=FILL_AREA_STYLE_COLOUR('',#619);
#498=LINE('',#620,#621);
#499=FILL_AREA_STYLE_COLOUR('',#622);
#500=COLOUR_RGB('',0.509803950786591,0.509803950786591,0.588235318660736);
#501=CARTESIAN_POINT('',(-12.5,-23.5308657865101,1.4408023876551E-015));
#502=CARTESIAN_POINT('',(-7.80000000000001,-18.8308657865101,1.15301989450684E-015));
#503=CARTESIAN_POINT('',(-6.61728355337246,-17.6481493398826,8.88178419700125E-016));
#504=VECTOR('',#623,1.0);
#505=CARTESIAN_POINT('',(-12.5,-23.5308657865101,-6.49999999999997));
#506=CARTESIAN_POINT('',(-12.5,-23.5308657865101,-7.74999999999999));
#507=VECTOR('',#624,1.0);
#508=CARTESIAN_POINT('',(-9.99999999999989,-21.03086578651,-9.00000000000003));
#509=CARTESIAN_POINT('',(-7.32818903558155,-18.3590548220917,-11.6718109644183));
#510=VECTOR('',#625,1.0);
#511=CARTESIAN_POINT('',(9.99999999999997,-1.03086578651016,-9.00000000000003));
#512=CARTESIAN_POINT('',(-0.992283553372472,-12.0231493398826,-9.00000000000003));
#513=VECTOR('',#626,1.0);
#514=CARTESIAN_POINT('',(12.5,1.46913421348987,-6.5));
#515=CARTESIAN_POINT('',(2.67181096441835,-8.35905482209179,-16.3281890355817));
#516=VECTOR('',#627,1.0);
#517=CARTESIAN_POINT('',(12.5,1.46913421348987,0.0));
#518=CARTESIAN_POINT('',(12.5,1.46913421348986,-7.75));
#519=VECTOR('',#628,1.0);
#520=CARTESIAN_POINT('',(7.80000000000001,-3.23086578651013,1.97826938525382E-016));
#521=CARTESIAN_POINT('',(-0.367283553372463,-11.3981493398826,8.88178419700125E-016));
#522=VECTOR('',#629,1.0);
#523=CARTESIAN_POINT('',(7.80000000000001,-3.23086578651013,9.0));
#524=CARTESIAN_POINT('',(7.80000000000001,-3.23086578651012,0.0));
#525=VECTOR('',#630,1.0);
#526=CARTESIAN_POINT('',(-7.80000000000001,-18.8308657865101,9.0));
#527=CARTESIAN_POINT('',(-5.44228355337247,-16.4731493398826,9.0));
#528=VECTOR('',#631,1.0);
#529=CARTESIAN_POINT('',(-7.80000000000001,-18.8308657865101,-4.5));
#530=VECTOR('',#632,1.0);
#531=COLOUR_RGB('',0.509803950786591,0.509803950786591,0.588235318660736);
#532=CARTESIAN_POINT('',(7.0,9.77630744695452E-015,9.0));
#533=CARTESIAN_POINT('',(1.24062778019071E-015,-6.99999999999999,9.0));
#534=AXIS2_PLACEMENT_3D('',#633,#634,#635);
#535=CARTESIAN_POINT('',(-1.24062778019071E-015,7.00000000000001,9.0));
#536=AXIS2_PLACEMENT_3D('',#636,#637,#638);
#537=AXIS2_PLACEMENT_3D('',#639,#640,#641);
#538=CARTESIAN_POINT('',(7.80000000000001,18.8308657865102,9.0));
#539=CARTESIAN_POINT('',(7.80000000000001,9.77630744695452E-015,9.0));
#540=VECTOR('',#642,1.0);
#541=CARTESIAN_POINT('',(-7.80000000000001,3.23086578651012,9.0));
#542=CARTESIAN_POINT('',(5.44228355337247,16.4731493398826,9.0));
#543=VECTOR('',#643,1.0);
#544=CARTESIAN_POINT('',(-7.80000000000001,9.77630744695452E-015,9.0));
#545=VECTOR('',#644,1.0);
#546=COLOUR_RGB('',0.509803950786591,0.509803950786591,0.588235318660736);
#547=CARTESIAN_POINT('',(9.99999999999997,21.0308657865101,-9.00000000000003));
#548=CARTESIAN_POINT('',(9.99999999999997,8.67416172851438E-015,-9.00000000000003));
#549=VECTOR('',#645,1.0);
#550=CARTESIAN_POINT('',(-9.99999999999991,1.03086578651022,-9.0));
#551=CARTESIAN_POINT('',(-9.99999999999989,8.67416172851438E-015,-9.00000000000003));
#552=VECTOR('',#646,1.0);
#553=CARTESIAN_POINT('',(0.992283553372497,12.0231493398826,-9.00000000000003));
#554=VECTOR('',#647,1.0);
#555=CARTESIAN_POINT('',(6.0,0.0,-9.0));
#556=CARTESIAN_POINT('',(-6.0,-7.34763812293426E-016,-9.00000000000003));
#557=AXIS2_PLACEMENT_3D('',#648,#649,#650);
#558=AXIS2_PLACEMENT_3D('',#651,#652,#653);
#559=COLOUR_RGB('',0.509803950786591,0.509803950786591,0.588235318660736);
#560=CARTESIAN_POINT('',(6.0,9.77630744695452E-015,8.42264973081037));
#561=CARTESIAN_POINT('',(6.0,7.34763812293426E-016,-0.288675134594827));
#562=VECTOR('',#654,1.0);
#563=CARTESIAN_POINT('',(-1.06339524016346E-015,6.0,8.42264973081037));
#564=AXIS2_PLACEMENT_3D('',#655,#656,#657);
#565=CARTESIAN_POINT('',(-6.0,-7.34763812293426E-016,8.42264973081037));
#566=AXIS2_PLACEMENT_3D('',#658,#659,#660);
#567=CARTESIAN_POINT('',(-6.0,-7.34763812293426E-016,-0.288675134594827));
#568=VECTOR('',#661,1.0);
#569=COLOUR_RGB('',0.509803950786591,0.509803950786591,0.588235318660736);
#570=CARTESIAN_POINT('',(-7.80000000000001,3.23086578651012,-1.97826938525381E-016));
#571=CARTESIAN_POINT('',(-12.5,-1.46913421348987,8.99555546228773E-017));
#572=CARTESIAN_POINT('',(0.36728355337247,11.3981493398826,0.0));
#573=VECTOR('',#662,1.0);
#574=CARTESIAN_POINT('',(-12.5,9.22523458773445E-015,0.0));
#575=VECTOR('',#663,1.0);
#576=CARTESIAN_POINT('',(-7.80000000000001,9.22523458773445E-015,0.0));
#577=VECTOR('',#664,1.0);
#578=COLOUR_RGB('',0.509803950786591,0.509803950786591,0.588235318660736);
#579=CARTESIAN_POINT('',(-1.14468899228819E-015,6.45868412263474,8.68747113248654));
#580=VECTOR('',#665,1.0);
#581=CARTESIAN_POINT('',(1.06339524016347E-015,-6.0,8.42264973081037));
#582=AXIS2_PLACEMENT_3D('',#666,#667,#668);
#583=CARTESIAN_POINT('',(1.14468899228819E-015,-6.45868412263472,8.68747113248654));
#584=VECTOR('',#669,1.0);
#585=COLOUR_RGB('',0.509803950786591,0.509803950786591,0.588235318660736);
#586=CARTESIAN_POINT('',(-7.80000000000001,3.23086578651012,0.0));
#587=VECTOR('',#670,1.0);
#588=COLOUR_RGB('',0.509803950786591,0.509803950786591,0.588235318660736);
#589=AXIS2_PLACEMENT_3D('',#671,#672,#673);
#590=COLOUR_RGB('',0.509803950786591,0.509803950786591,0.588235318660736);
#591=CARTESIAN_POINT('',(-12.5,-1.46913421348987,-6.49999999999997));
#592=CARTESIAN_POINT('',(-12.5,-1.46913421348987,-7.74999999999999));
#593=VECTOR('',#674,1.0);
#594=CARTESIAN_POINT('',(-12.5,8.82723752274218E-015,-6.49999999999997));
#595=VECTOR('',#675,1.0);
#596=COLOUR_RGB('',0.509803950786591,0.509803950786591,0.588235318660736);
#597=COLOUR_RGB('',0.509803950786591,0.509803950786591,0.588235318660736);
#598=CARTESIAN_POINT('',(7.80000000000001,18.8308657865102,-1.15301989450684E-015));
#599=CARTESIAN_POINT('',(7.80000000000001,9.22523458773445E-015,0.0));
#600=VECTOR('',#676,1.0);
#601=CARTESIAN_POINT('',(7.80000000000001,18.8308657865102,-4.5));
#602=VECTOR('',#677,1.0);
#603=COLOUR_RGB('',0.509803950786591,0.509803950786591,0.588235318660736);
#604=COLOUR_RGB('',0.509803950786591,0.509803950786591,0.588235318660736);
#605=CARTESIAN_POINT('',(12.5,23.5308657865102,-1.77635683940025E-015));
#606=CARTESIAN_POINT('',(12.5,9.22523458773445E-015,0.0));
#607=VECTOR('',#678,1.0);
#608=CARTESIAN_POINT('',(6.61728355337246,17.6481493398826,0.0));
#609=VECTOR('',#679,1.0);
#610=COLOUR_RGB('',0.509803950786591,0.509803950786591,0.588235318660736);
#611=CARTESIAN_POINT('',(-3.50514429775155,7.52572148875859,-15.4948557022482));
#612=VECTOR('',#680,1.0);
#613=COLOUR_RGB('',0.509803950786591,0.509803950786591,0.588235318660736);
#614=CARTESIAN_POINT('',(12.5,23.5308657865102,-6.5));
#615=CARTESIAN_POINT('',(7.32818903558163,18.3590548220918,-11.6718109644184));
#616=VECTOR('',#681,1.0);
#617=CARTESIAN_POINT('',(12.5,8.82723752274218E-015,-6.5));
#618=VECTOR('',#682,1.0);
#619=COLOUR_RGB('',0.509803950786591,0.509803950786591,0.588235318660736);
#620=CARTESIAN_POINT('',(12.5,23.5308657865102,-7.75));
#621=VECTOR('',#683,1.0);
#622=COLOUR_RGB('',0.509803950786591,0.509803950786591,0.588235318660736);
#623=DIRECTION('',(0.707106781186548,0.707106781186548,-4.32963728535968E-017));
#624=DIRECTION('',(0.0,0.0,1.0));
#625=DIRECTION('',(-0.57735026918963,-0.57735026918963,0.577350269189617));
#626=DIRECTION('',(-0.707106781186548,-0.707106781186548,4.32963728535968E-017));
#627=DIRECTION('',(-0.577350269189626,-0.577350269189626,-0.577350269189626));
#628=DIRECTION('',(0.0,0.0,-1.0));
#629=DIRECTION('',(0.707106781186548,0.707106781186548,-4.32963728535968E-017));
#630=DIRECTION('',(0.0,0.0,-1.0));
#631=DIRECTION('',(0.707106781186548,0.707106781186548,-4.32963728535968E-017));
#632=DIRECTION('',(0.0,0.0,1.0));
#633=CARTESIAN_POINT('',(0.0,9.77630744695452E-015,9.0));
#634=DIRECTION('',(-8.68375799687097E-050,-6.12303176911189E-017,-1.0));
#635=DIRECTION('',(-5.47719046450065E-017,1.0,-6.12303176911189E-017));
#636=CARTESIAN_POINT('',(0.0,9.77630744695452E-015,9.0));
#637=DIRECTION('',(-8.68375799687097E-050,-6.12303176911189E-017,-1.0));
#638=DIRECTION('',(-5.47719046450065E-017,1.0,-6.12303176911189E-017));
#639=CARTESIAN_POINT('',(0.0,9.77630744695452E-015,9.0));
#640=DIRECTION('',(-8.68375799687097E-050,-6.12303176911189E-017,-1.0));
#641=DIRECTION('',(-5.47719046450065E-017,1.0,-6.12303176911189E-017));
#642=DIRECTION('',(0.0,-1.0,6.12303176911189E-017));
#643=DIRECTION('',(-0.707106781186547,-0.707106781186548,4.32963728535968E-017));
#644=DIRECTION('',(0.0,-1.0,6.12303176911189E-017));
#645=DIRECTION('',(0.0,-1.0,6.12303176911189E-017));
#646=DIRECTION('',(0.0,-1.0,6.12303176911189E-017));
#647=DIRECTION('',(0.707106781186547,0.707106781186548,-4.32963728535968E-017));
#648=CARTESIAN_POINT('',(0.0,0.0,-9.00000000000003));
#649=DIRECTION('',(-0.0,6.12303176911189E-017,1.0));
#650=DIRECTION('',(1.0,0.0,0.0));
#651=CARTESIAN_POINT('',(0.0,0.0,-9.00000000000003));
#652=DIRECTION('',(-0.0,6.12303176911189E-017,1.0));
#653=DIRECTION('',(1.0,0.0,0.0));
#654=DIRECTION('',(-0.0,-0.0,1.0));
#655=CARTESIAN_POINT('',(0.0,0.0,8.42264973081037));
#656=DIRECTION('',(0.0,0.0,1.0));
#657=DIRECTION('',(1.0,0.0,0.0));
#658=CARTESIAN_POINT('',(0.0,0.0,8.42264973081037));
#659=DIRECTION('',(0.0,0.0,1.0));
#660=DIRECTION('',(1.0,0.0,0.0));
#661=DIRECTION('',(-0.0,-0.0,-1.0));
#662=DIRECTION('',(-0.707106781186547,-0.707106781186548,4.32963728535968E-017));
#663=DIRECTION('',(0.0,-1.0,6.12303176911189E-017));
#664=DIRECTION('',(0.0,-1.0,6.12303176911189E-017));
#665=DIRECTION('',(-1.53487882040836E-016,0.866025403784439,0.5));
#666=CARTESIAN_POINT('',(0.0,0.0,8.42264973081037));
#667=DIRECTION('',(0.0,0.0,1.0));
#668=DIRECTION('',(1.0,0.0,0.0));
#669=DIRECTION('',(-1.53487882040836E-016,0.866025403784439,-0.5));
#670=DIRECTION('',(0.0,0.0,-1.0));
#671=CARTESIAN_POINT('',(0.0,0.0,8.42264973081037));
#672=DIRECTION('',(0.0,0.0,1.0));
#673=DIRECTION('',(1.0,0.0,0.0));
#674=DIRECTION('',(0.0,0.0,-1.0));
#675=DIRECTION('',(0.0,-1.0,6.12303176911189E-017));
#676=DIRECTION('',(0.0,-1.0,6.12303176911189E-017));
#677=DIRECTION('',(0.0,0.0,1.0));
#678=DIRECTION('',(0.0,1.0,-6.12303176911189E-017));
#679=DIRECTION('',(-0.707106781186547,-0.707106781186548,4.32963728535968E-017));
#680=DIRECTION('',(0.57735026918963,0.577350269189631,-0.577350269189617));
#681=DIRECTION('',(0.577350269189626,0.577350269189626,0.577350269189626));
#682=DIRECTION('',(0.0,1.0,-6.12303176911189E-017));
#683=DIRECTION('',(0.0,0.0,1.0));
ENDSEC;
END-ISO-10303-21;
