ISO-10303-21;
HEADER;
FILE_DESCRIPTION(('STEP AP214'),'1');
FILE_NAME(' ','  ',('TraceParts'),('TraceParts S.A.'),'XStep 1.0',' ',' ');
FILE_SCHEMA(('automotive_design'));
ENDSEC;
DATA;
#1=PRODUCT_DEFINITION_CONTEXT('',#9,'design');
#2=APPLICATION_PROTOCOL_DEFINITION('INTERNATIONAL STANDARD','automotive_design',1994,#9);
#3=PRODUCT_CATEGORY_RELATIONSHIP('NONE','NONE',#10,#11);
#4=SHAPE_DEFINITION_REPRESENTATION(#12,#13);
#5= (GEOMETRIC_REPRESENTATION_CONTEXT(3)GLOBAL_UNCERTAINTY_ASSIGNED_CONTEXT((#16))GLOBAL_UNIT_ASSIGNED_CONTEXT((#18,#19,#20))REPRESENTATION_CONTEXT('NONE','WORKSPACE'));
#9=APPLICATION_CONTEXT(' ');
#10=PRODUCT_CATEGORY('part','NONE');
#11=PRODUCT_RELATED_PRODUCT_CATEGORY('detail',' ',(#22));
#12=PRODUCT_DEFINITION_SHAPE('NONE','NONE',#23);
#13=ADVANCED_BREP_SHAPE_REPRESENTATION('1',(#24,#25),#5);
#16=UNCERTAINTY_MEASURE_WITH_UNIT(LENGTH_MEASURE(1.0E-006),#18,'','');
#18= (CONVERSION_BASED_UNIT('MILLIMETRE',#28)LENGTH_UNIT()NAMED_UNIT(#31));
#19= (NAMED_UNIT(#33)PLANE_ANGLE_UNIT()SI_UNIT($,.RADIAN.));
#20= (NAMED_UNIT(#33)SOLID_ANGLE_UNIT()SI_UNIT($,.STERADIAN.));
#22=PRODUCT('1','1','PART-1-DESC',(#39));
#23=PRODUCT_DEFINITION('NONE','NONE',#40,#1);
#24=MANIFOLD_SOLID_BREP('1',#41);
#25=AXIS2_PLACEMENT_3D('',#42,#43,#44);
#28=LENGTH_MEASURE_WITH_UNIT(LENGTH_MEASURE(1.0),#45);
#31=DIMENSIONAL_EXPONENTS(1.0,0.0,0.0,0.0,0.0,0.0,0.0);
#33=DIMENSIONAL_EXPONENTS(0.0,0.0,0.0,0.0,0.0,0.0,0.0);
#39=PRODUCT_CONTEXT('',#9,'mechanical');
#40=PRODUCT_DEFINITION_FORMATION_WITH_SPECIFIED_SOURCE(' ','NONE',#22,.NOT_KNOWN.);
#41=CLOSED_SHELL('',(#46,#47,#48,#49,#50,#51));
#42=CARTESIAN_POINT('',(0.0,0.0,0.0));
#43=DIRECTION('',(0.0,0.0,1.0));
#44=DIRECTION('',(1.0,0.0,0.0));
#45= (NAMED_UNIT(#31)LENGTH_UNIT()SI_UNIT(.MILLI.,.METRE.));
#46=ADVANCED_FACE('',(#53),#54,.F.);
#47=ADVANCED_FACE('',(#55),#56,.T.);
#48=ADVANCED_FACE('',(#57),#58,.T.);
#49=ADVANCED_FACE('',(#59,#60),#61,.T.);
#50=ADVANCED_FACE('',(#62),#63,.F.);
#51=ADVANCED_FACE('',(#64,#65),#66,.T.);
#53=FACE_OUTER_BOUND('',#67,.T.);
#54=CYLINDRICAL_SURFACE('',#68,1.35);
#55=FACE_OUTER_BOUND('',#69,.T.);
#56=CYLINDRICAL_SURFACE('',#70,2.0);
#57=FACE_OUTER_BOUND('',#71,.T.);
#58=CYLINDRICAL_SURFACE('',#72,2.0);
#59=FACE_BOUND('',#73,.T.);
#60=FACE_OUTER_BOUND('',#74,.T.);
#61=PLANE('',#75);
#62=FACE_OUTER_BOUND('',#76,.T.);
#63=CYLINDRICAL_SURFACE('',#77,1.35);
#64=FACE_OUTER_BOUND('',#78,.T.);
#65=FACE_BOUND('',#79,.T.);
#66=PLANE('',#80);
#67=EDGE_LOOP('',(#81,#82,#83,#84));
#68=AXIS2_PLACEMENT_3D('',#85,#86,#87);
#69=EDGE_LOOP('',(#88,#89,#90,#91));
#70=AXIS2_PLACEMENT_3D('',#92,#93,#94);
#71=EDGE_LOOP('',(#95,#96,#97,#98));
#72=AXIS2_PLACEMENT_3D('',#99,#100,#101);
#73=EDGE_LOOP('',(#102,#103));
#74=EDGE_LOOP('',(#104,#105));
#75=AXIS2_PLACEMENT_3D('',#106,#107,#108);
#76=EDGE_LOOP('',(#109,#110,#111,#112));
#77=AXIS2_PLACEMENT_3D('',#113,#114,#115);
#78=EDGE_LOOP('',(#116,#117));
#79=EDGE_LOOP('',(#118,#119));
#80=AXIS2_PLACEMENT_3D('',#120,#121,#122);
#81=ORIENTED_EDGE('',*,*,#123,.F.);
#82=ORIENTED_EDGE('',*,*,#124,.F.);
#83=ORIENTED_EDGE('',*,*,#125,.F.);
#84=ORIENTED_EDGE('',*,*,#126,.T.);
#85=CARTESIAN_POINT('',(15.0,9.18454765366783E-016,0.0));
#86=DIRECTION('',(-1.0,-6.12303176911189E-017,-0.0));
#87=DIRECTION('',(6.12303176911189E-017,-1.0,0.0));
#88=ORIENTED_EDGE('',*,*,#127,.F.);
#89=ORIENTED_EDGE('',*,*,#128,.T.);
#90=ORIENTED_EDGE('',*,*,#129,.F.);
#91=ORIENTED_EDGE('',*,*,#130,.F.);
#92=CARTESIAN_POINT('',(15.0,9.18454765366783E-016,0.0));
#93=DIRECTION('',(-1.0,-6.12303176911189E-017,-0.0));
#94=DIRECTION('',(6.12303176911189E-017,-1.0,0.0));
#95=ORIENTED_EDGE('',*,*,#127,.T.);
#96=ORIENTED_EDGE('',*,*,#131,.F.);
#97=ORIENTED_EDGE('',*,*,#129,.T.);
#98=ORIENTED_EDGE('',*,*,#132,.T.);
#99=CARTESIAN_POINT('',(15.0,9.18454765366783E-016,0.0));
#100=DIRECTION('',(-1.0,-6.12303176911189E-017,-0.0));
#101=DIRECTION('',(6.12303176911189E-017,-1.0,0.0));
#102=ORIENTED_EDGE('',*,*,#133,.F.);
#103=ORIENTED_EDGE('',*,*,#126,.F.);
#104=ORIENTED_EDGE('',*,*,#130,.T.);
#105=ORIENTED_EDGE('',*,*,#131,.T.);
#106=CARTESIAN_POINT('',(30.0,-1.675,0.0));
#107=DIRECTION('',(1.0,6.12303176911189E-017,0.0));
#108=DIRECTION('',(6.12303176911189E-017,-1.0,0.0));
#109=ORIENTED_EDGE('',*,*,#123,.T.);
#110=ORIENTED_EDGE('',*,*,#133,.T.);
#111=ORIENTED_EDGE('',*,*,#125,.T.);
#112=ORIENTED_EDGE('',*,*,#134,.F.);
#113=CARTESIAN_POINT('',(15.0,9.18454765366783E-016,0.0));
#114=DIRECTION('',(-1.0,-6.12303176911189E-017,-0.0));
#115=DIRECTION('',(6.12303176911189E-017,-1.0,0.0));
#116=ORIENTED_EDGE('',*,*,#128,.F.);
#117=ORIENTED_EDGE('',*,*,#132,.F.);
#118=ORIENTED_EDGE('',*,*,#134,.T.);
#119=ORIENTED_EDGE('',*,*,#124,.T.);
#120=CARTESIAN_POINT('',(1.02560782132624E-016,-1.675,0.0));
#121=DIRECTION('',(-1.0,-6.12303176911189E-017,-0.0));
#122=DIRECTION('',(-6.12303176911189E-017,1.0,0.0));
#123=EDGE_CURVE('',#135,#136,#137,.T.);
#124=EDGE_CURVE('',#138,#135,#139,.T.);
#125=EDGE_CURVE('',#140,#138,#141,.T.);
#126=EDGE_CURVE('',#140,#136,#142,.T.);
#127=EDGE_CURVE('',#143,#144,#145,.T.);
#128=EDGE_CURVE('',#143,#146,#147,.T.);
#129=EDGE_CURVE('',#148,#146,#149,.T.);
#130=EDGE_CURVE('',#144,#148,#150,.T.);
#131=EDGE_CURVE('',#148,#144,#151,.T.);
#132=EDGE_CURVE('',#146,#143,#152,.T.);
#133=EDGE_CURVE('',#136,#140,#153,.T.);
#134=EDGE_CURVE('',#135,#138,#154,.T.);
#135=VERTEX_POINT('',#155);
#136=VERTEX_POINT('',#156);
#137=LINE('',#157,#158);
#138=VERTEX_POINT('',#159);
#139=CIRCLE('',#160,1.35);
#140=VERTEX_POINT('',#161);
#141=LINE('',#162,#163);
#142=CIRCLE('',#164,1.35);
#143=VERTEX_POINT('',#165);
#144=VERTEX_POINT('',#166);
#145=LINE('',#167,#168);
#146=VERTEX_POINT('',#169);
#147=CIRCLE('',#170,2.0);
#148=VERTEX_POINT('',#171);
#149=LINE('',#172,#173);
#150=CIRCLE('',#174,2.0);
#151=CIRCLE('',#175,2.0);
#152=CIRCLE('',#176,2.0);
#153=CIRCLE('',#177,1.35);
#154=CIRCLE('',#178,1.35);
#155=CARTESIAN_POINT('',(8.26609288830105E-017,-1.35,0.0));
#156=CARTESIAN_POINT('',(30.0,-1.35,0.0));
#157=CARTESIAN_POINT('',(15.0,-1.35,1.65321857766021E-016));
#158=VECTOR('',#179,1.0);
#159=CARTESIAN_POINT('',(-8.26609288830105E-017,1.35,-1.65321857766021E-016));
#160=AXIS2_PLACEMENT_3D('',#180,#181,#182);
#161=CARTESIAN_POINT('',(30.0,1.35,-1.65321857766021E-016));
#162=CARTESIAN_POINT('',(15.0,1.35,-1.65321857766021E-016));
#163=VECTOR('',#183,1.0);
#164=AXIS2_PLACEMENT_3D('',#184,#185,#186);
#165=CARTESIAN_POINT('',(1.22460635382238E-016,-2.0,0.0));
#166=CARTESIAN_POINT('',(30.0,-2.0,0.0));
#167=CARTESIAN_POINT('',(15.0,-2.0,2.44921270764475E-016));
#168=VECTOR('',#187,1.0);
#169=CARTESIAN_POINT('',(-1.22460635382238E-016,2.0,-2.44921270764475E-016));
#170=AXIS2_PLACEMENT_3D('',#188,#189,#190);
#171=CARTESIAN_POINT('',(30.0,2.0,-2.44921270764475E-016));
#172=CARTESIAN_POINT('',(15.0,2.0,-2.44921270764475E-016));
#173=VECTOR('',#191,1.0);
#174=AXIS2_PLACEMENT_3D('',#192,#193,#194);
#175=AXIS2_PLACEMENT_3D('',#195,#196,#197);
#176=AXIS2_PLACEMENT_3D('',#198,#199,#200);
#177=AXIS2_PLACEMENT_3D('',#201,#202,#203);
#178=AXIS2_PLACEMENT_3D('',#204,#205,#206);
#179=DIRECTION('',(1.0,6.12303176911189E-017,-0.0));
#180=CARTESIAN_POINT('',(0.0,0.0,0.0));
#181=DIRECTION('',(1.0,6.12303176911189E-017,0.0));
#182=DIRECTION('',(6.12303176911189E-017,-1.0,0.0));
#183=DIRECTION('',(-1.0,-6.12303176911189E-017,-0.0));
#184=CARTESIAN_POINT('',(30.0,1.83690953073357E-015,0.0));
#185=DIRECTION('',(1.0,6.12303176911189E-017,0.0));
#186=DIRECTION('',(6.12303176911189E-017,-1.0,0.0));
#187=DIRECTION('',(1.0,6.12303176911189E-017,0.0));
#188=CARTESIAN_POINT('',(0.0,0.0,0.0));
#189=DIRECTION('',(1.0,6.12303176911189E-017,0.0));
#190=DIRECTION('',(6.12303176911189E-017,-1.0,0.0));
#191=DIRECTION('',(-1.0,-6.12303176911189E-017,-0.0));
#192=CARTESIAN_POINT('',(30.0,1.83690953073357E-015,0.0));
#193=DIRECTION('',(1.0,6.12303176911189E-017,0.0));
#194=DIRECTION('',(6.12303176911189E-017,-1.0,0.0));
#195=CARTESIAN_POINT('',(30.0,1.83690953073357E-015,0.0));
#196=DIRECTION('',(1.0,6.12303176911189E-017,0.0));
#197=DIRECTION('',(6.12303176911189E-017,-1.0,0.0));
#198=CARTESIAN_POINT('',(0.0,0.0,0.0));
#199=DIRECTION('',(1.0,6.12303176911189E-017,0.0));
#200=DIRECTION('',(6.12303176911189E-017,-1.0,0.0));
#201=CARTESIAN_POINT('',(30.0,1.83690953073357E-015,0.0));
#202=DIRECTION('',(1.0,6.12303176911189E-017,0.0));
#203=DIRECTION('',(6.12303176911189E-017,-1.0,0.0));
#204=CARTESIAN_POINT('',(0.0,0.0,0.0));
#205=DIRECTION('',(1.0,6.12303176911189E-017,0.0));
#206=DIRECTION('',(6.12303176911189E-017,-1.0,0.0));
ENDSEC;
END-ISO-10303-21;
