ISO-10303-21;
HEADER;
FILE_DESCRIPTION(('STEP AP214'),'1');
FILE_NAME('haldern_eh_22751_0122.stp','2018-07-25T13:31:10',('TraceParts'),('TraceParts S.A.'),'Spatial InterOp 3D',' ',' ');
FILE_SCHEMA(('automotive_design'));
ENDSEC;
DATA;
#1=MECHANICAL_DESIGN_GEOMETRIC_PRESENTATION_REPRESENTATION(' ',(#10,#11,#12,#13,#14,#15,#16,#17,#18,#19),#6);
#2=PRODUCT_DEFINITION_CONTEXT('',#20,'design');
#3=APPLICATION_PROTOCOL_DEFINITION('INTERNATIONAL STANDARD','automotive_design',1994,#20);
#4=PRODUCT_CATEGORY_RELATIONSHIP('NONE','NONE',#21,#22);
#5=SHAPE_DEFINITION_REPRESENTATION(#23,#24);
#6= (GEOMETRIC_REPRESENTATION_CONTEXT(3)GLOBAL_UNCERTAINTY_ASSIGNED_CONTEXT((#27))GLOBAL_UNIT_ASSIGNED_CONTEXT((#29,#30,#31))REPRESENTATION_CONTEXT('NONE','WORKSPACE'));
#10=STYLED_ITEM('',(#33),#34);
#11=STYLED_ITEM('',(#35),#36);
#12=STYLED_ITEM('',(#37),#38);
#13=STYLED_ITEM('',(#39),#40);
#14=STYLED_ITEM('',(#41),#42);
#15=STYLED_ITEM('',(#43),#44);
#16=STYLED_ITEM('',(#45),#46);
#17=STYLED_ITEM('',(#47),#48);
#18=STYLED_ITEM('',(#49),#50);
#19=STYLED_ITEM('',(#51),#52);
#20=APPLICATION_CONTEXT(' ');
#21=PRODUCT_CATEGORY('part','NONE');
#22=PRODUCT_RELATED_PRODUCT_CATEGORY('detail',' ',(#53));
#23=PRODUCT_DEFINITION_SHAPE('NONE','NONE',#54);
#24=ADVANCED_BREP_SHAPE_REPRESENTATION('haldern_eh_22751_0122',(#55,#56),#6);
#27=UNCERTAINTY_MEASURE_WITH_UNIT(LENGTH_MEASURE(1.0E-006),#29,'','');
#29= (CONVERSION_BASED_UNIT('MILLIMETRE',#59)LENGTH_UNIT()NAMED_UNIT(#62));
#30= (NAMED_UNIT(#64)PLANE_ANGLE_UNIT()SI_UNIT($,.RADIAN.));
#31= (NAMED_UNIT(#64)SOLID_ANGLE_UNIT()SI_UNIT($,.STERADIAN.));
#33=PRESENTATION_STYLE_ASSIGNMENT((#70));
#34=ADVANCED_FACE('',(#71),#72,.T.);
#35=PRESENTATION_STYLE_ASSIGNMENT((#73));
#36=ADVANCED_FACE('',(#74),#75,.T.);
#37=PRESENTATION_STYLE_ASSIGNMENT((#76));
#38=ADVANCED_FACE('',(#77),#78,.T.);
#39=PRESENTATION_STYLE_ASSIGNMENT((#79));
#40=ADVANCED_FACE('',(#80),#81,.T.);
#41=PRESENTATION_STYLE_ASSIGNMENT((#82));
#42=ADVANCED_FACE('',(#83,#84),#85,.T.);
#43=PRESENTATION_STYLE_ASSIGNMENT((#86));
#44=ADVANCED_FACE('',(#87),#88,.T.);
#45=PRESENTATION_STYLE_ASSIGNMENT((#89));
#46=ADVANCED_FACE('',(#90,#91),#92,.T.);
#47=PRESENTATION_STYLE_ASSIGNMENT((#93));
#48=ADVANCED_FACE('',(#94),#95,.T.);
#49=PRESENTATION_STYLE_ASSIGNMENT((#96));
#50=ADVANCED_FACE('',(#97),#98,.T.);
#51=PRESENTATION_STYLE_ASSIGNMENT((#99));
#52=ADVANCED_FACE('',(#100),#101,.T.);
#53=PRODUCT('haldern_eh_22751_0122','haldern_eh_22751_0122','PART-haldern_eh_22751_0122-DESC',(#102));
#54=PRODUCT_DEFINITION('NONE','NONE',#103,#2);
#55=MANIFOLD_SOLID_BREP('haldern_eh_22751_0122',#104);
#56=AXIS2_PLACEMENT_3D('',#105,#106,#107);
#59=LENGTH_MEASURE_WITH_UNIT(LENGTH_MEASURE(1.0),#108);
#62=DIMENSIONAL_EXPONENTS(1.0,0.0,0.0,0.0,0.0,0.0,0.0);
#64=DIMENSIONAL_EXPONENTS(0.0,0.0,0.0,0.0,0.0,0.0,0.0);
#70=SURFACE_STYLE_USAGE(.BOTH.,#109);
#71=FACE_OUTER_BOUND('',#110,.T.);
#72=CYLINDRICAL_SURFACE('',#111,18.0);
#73=SURFACE_STYLE_USAGE(.BOTH.,#112);
#74=FACE_OUTER_BOUND('',#113,.T.);
#75=CYLINDRICAL_SURFACE('',#114,22.5);
#76=SURFACE_STYLE_USAGE(.BOTH.,#115);
#77=FACE_OUTER_BOUND('',#116,.T.);
#78=CONICAL_SURFACE('',#117,19.8,1.22262020713844);
#79=SURFACE_STYLE_USAGE(.BOTH.,#118);
#80=FACE_OUTER_BOUND('',#119,.T.);
#81=SPHERICAL_SURFACE('',#120,12.0);
#82=SURFACE_STYLE_USAGE(.BOTH.,#121);
#83=FACE_OUTER_BOUND('',#122,.T.);
#84=FACE_BOUND('',#123,.T.);
#85=PLANE('',#124);
#86=SURFACE_STYLE_USAGE(.BOTH.,#125);
#87=FACE_OUTER_BOUND('',#126,.T.);
#88=CONICAL_SURFACE('',#127,19.8,1.22262020713844);
#89=SURFACE_STYLE_USAGE(.BOTH.,#128);
#90=FACE_BOUND('',#129,.T.);
#91=FACE_OUTER_BOUND('',#130,.T.);
#92=PLANE('',#131);
#93=SURFACE_STYLE_USAGE(.BOTH.,#132);
#94=FACE_OUTER_BOUND('',#133,.T.);
#95=CYLINDRICAL_SURFACE('',#134,22.5);
#96=SURFACE_STYLE_USAGE(.BOTH.,#135);
#97=FACE_OUTER_BOUND('',#136,.T.);
#98=CYLINDRICAL_SURFACE('',#137,18.0);
#99=SURFACE_STYLE_USAGE(.BOTH.,#138);
#100=FACE_OUTER_BOUND('',#139,.T.);
#101=PLANE('',#140);
#102=PRODUCT_CONTEXT('',#20,'mechanical');
#103=PRODUCT_DEFINITION_FORMATION_WITH_SPECIFIED_SOURCE(' ','NONE',#53,.NOT_KNOWN.);
#104=CLOSED_SHELL('',(#34,#36,#38,#40,#42,#44,#46,#48,#50,#52));
#105=CARTESIAN_POINT('',(0.0,0.0,0.0));
#106=DIRECTION('',(0.0,0.0,1.0));
#107=DIRECTION('',(1.0,0.0,0.0));
#108= (NAMED_UNIT(#62)LENGTH_UNIT()SI_UNIT(.MILLI.,.METRE.));
#109=SURFACE_SIDE_STYLE('',(#142));
#110=EDGE_LOOP('',(#143,#144,#145,#146));
#111=AXIS2_PLACEMENT_3D('',#147,#148,#149);
#112=SURFACE_SIDE_STYLE('',(#150));
#113=EDGE_LOOP('',(#151,#152,#153,#154));
#114=AXIS2_PLACEMENT_3D('',#155,#156,#157);
#115=SURFACE_SIDE_STYLE('',(#158));
#116=EDGE_LOOP('',(#159,#160,#161,#162));
#117=AXIS2_PLACEMENT_3D('',#163,#164,#165);
#118=SURFACE_SIDE_STYLE('',(#166));
#119=EDGE_LOOP('',(#167,#168));
#120=AXIS2_PLACEMENT_3D('',#169,#170,#171);
#121=SURFACE_SIDE_STYLE('',(#172));
#122=EDGE_LOOP('',(#173,#174));
#123=EDGE_LOOP('',(#175,#176));
#124=AXIS2_PLACEMENT_3D('',#177,#178,#179);
#125=SURFACE_SIDE_STYLE('',(#180));
#126=EDGE_LOOP('',(#181,#182,#183,#184));
#127=AXIS2_PLACEMENT_3D('',#185,#186,#187);
#128=SURFACE_SIDE_STYLE('',(#188));
#129=EDGE_LOOP('',(#189,#190));
#130=EDGE_LOOP('',(#191,#192));
#131=AXIS2_PLACEMENT_3D('',#193,#194,#195);
#132=SURFACE_SIDE_STYLE('',(#196));
#133=EDGE_LOOP('',(#197,#198,#199,#200));
#134=AXIS2_PLACEMENT_3D('',#201,#202,#203);
#135=SURFACE_SIDE_STYLE('',(#204));
#136=EDGE_LOOP('',(#205,#206,#207,#208));
#137=AXIS2_PLACEMENT_3D('',#209,#210,#211);
#138=SURFACE_SIDE_STYLE('',(#212));
#139=EDGE_LOOP('',(#213,#214));
#140=AXIS2_PLACEMENT_3D('',#215,#216,#217);
#142=SURFACE_STYLE_FILL_AREA(#218);
#143=ORIENTED_EDGE('',*,*,#219,.F.);
#144=ORIENTED_EDGE('',*,*,#220,.F.);
#145=ORIENTED_EDGE('',*,*,#221,.F.);
#146=ORIENTED_EDGE('',*,*,#222,.F.);
#147=CARTESIAN_POINT('',(0.0,10.1,0.0));
#148=DIRECTION('',(-0.0,1.0,0.0));
#149=DIRECTION('',(1.0,0.0,0.0));
#150=SURFACE_STYLE_FILL_AREA(#223);
#151=ORIENTED_EDGE('',*,*,#224,.F.);
#152=ORIENTED_EDGE('',*,*,#225,.F.);
#153=ORIENTED_EDGE('',*,*,#226,.F.);
#154=ORIENTED_EDGE('',*,*,#227,.F.);
#155=CARTESIAN_POINT('',(0.0,21.67,0.0));
#156=DIRECTION('',(-0.0,1.0,0.0));
#157=DIRECTION('',(1.0,0.0,0.0));
#158=SURFACE_STYLE_FILL_AREA(#228);
#159=ORIENTED_EDGE('',*,*,#229,.F.);
#160=ORIENTED_EDGE('',*,*,#230,.T.);
#161=ORIENTED_EDGE('',*,*,#231,.F.);
#162=ORIENTED_EDGE('',*,*,#232,.F.);
#163=CARTESIAN_POINT('',(6.00057113372965E-017,24.12,0.0));
#164=DIRECTION('',(-6.12303176911189E-017,-1.0,-0.0));
#165=DIRECTION('',(-1.0,6.12303176911189E-017,0.0));
#166=SURFACE_STYLE_FILL_AREA(#233);
#167=ORIENTED_EDGE('',*,*,#234,.F.);
#168=ORIENTED_EDGE('',*,*,#235,.F.);
#169=CARTESIAN_POINT('',(0.0,18.0,0.0));
#170=DIRECTION('',(0.0,0.0,1.0));
#171=DIRECTION('',(1.0,0.0,0.0));
#172=SURFACE_STYLE_FILL_AREA(#236);
#173=ORIENTED_EDGE('',*,*,#237,.T.);
#174=ORIENTED_EDGE('',*,*,#225,.T.);
#175=ORIENTED_EDGE('',*,*,#222,.T.);
#176=ORIENTED_EDGE('',*,*,#238,.T.);
#177=CARTESIAN_POINT('',(0.0,20.2,0.0));
#178=DIRECTION('',(0.0,-1.0,0.0));
#179=DIRECTION('',(-1.0,0.0,0.0));
#180=SURFACE_STYLE_FILL_AREA(#239);
#181=ORIENTED_EDGE('',*,*,#229,.T.);
#182=ORIENTED_EDGE('',*,*,#240,.F.);
#183=ORIENTED_EDGE('',*,*,#231,.T.);
#184=ORIENTED_EDGE('',*,*,#227,.T.);
#185=CARTESIAN_POINT('',(6.00057113372965E-017,24.12,0.0));
#186=DIRECTION('',(-6.12303176911189E-017,-1.0,-0.0));
#187=DIRECTION('',(-1.0,6.12303176911189E-017,0.0));
#188=SURFACE_STYLE_FILL_AREA(#241);
#189=ORIENTED_EDGE('',*,*,#234,.T.);
#190=ORIENTED_EDGE('',*,*,#235,.T.);
#191=ORIENTED_EDGE('',*,*,#232,.T.);
#192=ORIENTED_EDGE('',*,*,#240,.T.);
#193=CARTESIAN_POINT('',(-8.55,25.1,0.0));
#194=DIRECTION('',(6.12303176911189E-017,1.0,0.0));
#195=DIRECTION('',(-1.0,6.12303176911189E-017,0.0));
#196=SURFACE_STYLE_FILL_AREA(#242);
#197=ORIENTED_EDGE('',*,*,#224,.T.);
#198=ORIENTED_EDGE('',*,*,#230,.F.);
#199=ORIENTED_EDGE('',*,*,#226,.T.);
#200=ORIENTED_EDGE('',*,*,#237,.F.);
#201=CARTESIAN_POINT('',(0.0,21.67,0.0));
#202=DIRECTION('',(-0.0,1.0,0.0));
#203=DIRECTION('',(1.0,0.0,0.0));
#204=SURFACE_STYLE_FILL_AREA(#243);
#205=ORIENTED_EDGE('',*,*,#219,.T.);
#206=ORIENTED_EDGE('',*,*,#238,.F.);
#207=ORIENTED_EDGE('',*,*,#221,.T.);
#208=ORIENTED_EDGE('',*,*,#244,.F.);
#209=CARTESIAN_POINT('',(0.0,10.1,0.0));
#210=DIRECTION('',(-0.0,1.0,0.0));
#211=DIRECTION('',(1.0,0.0,0.0));
#212=SURFACE_STYLE_FILL_AREA(#245);
#213=ORIENTED_EDGE('',*,*,#244,.T.);
#214=ORIENTED_EDGE('',*,*,#220,.T.);
#215=CARTESIAN_POINT('',(0.0,0.0,0.0));
#216=DIRECTION('',(0.0,-1.0,0.0));
#217=DIRECTION('',(-1.0,0.0,0.0));
#218=FILL_AREA_STYLE('',(#246));
#219=EDGE_CURVE('',#247,#248,#249,.T.);
#220=EDGE_CURVE('',#250,#247,#251,.T.);
#221=EDGE_CURVE('',#252,#250,#253,.T.);
#222=EDGE_CURVE('',#248,#252,#254,.T.);
#223=FILL_AREA_STYLE('',(#255));
#224=EDGE_CURVE('',#256,#257,#258,.T.);
#225=EDGE_CURVE('',#259,#256,#260,.T.);
#226=EDGE_CURVE('',#261,#259,#262,.T.);
#227=EDGE_CURVE('',#257,#261,#263,.T.);
#228=FILL_AREA_STYLE('',(#264));
#229=EDGE_CURVE('',#261,#265,#266,.T.);
#230=EDGE_CURVE('',#261,#257,#267,.T.);
#231=EDGE_CURVE('',#268,#257,#269,.T.);
#232=EDGE_CURVE('',#265,#268,#270,.T.);
#233=FILL_AREA_STYLE('',(#271));
#234=EDGE_CURVE('',#272,#273,#274,.T.);
#235=EDGE_CURVE('',#273,#272,#275,.T.);
#236=FILL_AREA_STYLE('',(#276));
#237=EDGE_CURVE('',#256,#259,#277,.T.);
#238=EDGE_CURVE('',#252,#248,#278,.T.);
#239=FILL_AREA_STYLE('',(#279));
#240=EDGE_CURVE('',#268,#265,#280,.T.);
#241=FILL_AREA_STYLE('',(#281));
#242=FILL_AREA_STYLE('',(#282));
#243=FILL_AREA_STYLE('',(#283));
#244=EDGE_CURVE('',#247,#250,#284,.T.);
#245=FILL_AREA_STYLE('',(#285));
#246=FILL_AREA_STYLE_COLOUR('',#286);
#247=VERTEX_POINT('',#287);
#248=VERTEX_POINT('',#288);
#249=LINE('',#289,#290);
#250=VERTEX_POINT('',#291);
#251=CIRCLE('',#292,18.0);
#252=VERTEX_POINT('',#293);
#253=LINE('',#294,#295);
#254=CIRCLE('',#296,18.0);
#255=FILL_AREA_STYLE_COLOUR('',#297);
#256=VERTEX_POINT('',#298);
#257=VERTEX_POINT('',#299);
#258=LINE('',#300,#301);
#259=VERTEX_POINT('',#302);
#260=CIRCLE('',#303,22.5);
#261=VERTEX_POINT('',#304);
#262=LINE('',#305,#306);
#263=CIRCLE('',#307,22.5);
#264=FILL_AREA_STYLE_COLOUR('',#308);
#265=VERTEX_POINT('',#309);
#266=LINE('',#310,#311);
#267=CIRCLE('',#312,22.5);
#268=VERTEX_POINT('',#313);
#269=LINE('',#314,#315);
#270=CIRCLE('',#316,17.1);
#271=FILL_AREA_STYLE_COLOUR('',#317);
#272=VERTEX_POINT('',#318);
#273=VERTEX_POINT('',#319);
#274=CIRCLE('',#320,9.67419247275968);
#275=CIRCLE('',#321,9.67419247275968);
#276=FILL_AREA_STYLE_COLOUR('',#322);
#277=CIRCLE('',#323,22.5);
#278=CIRCLE('',#324,18.0);
#279=FILL_AREA_STYLE_COLOUR('',#325);
#280=CIRCLE('',#326,17.1);
#281=FILL_AREA_STYLE_COLOUR('',#327);
#282=FILL_AREA_STYLE_COLOUR('',#328);
#283=FILL_AREA_STYLE_COLOUR('',#329);
#284=CIRCLE('',#330,18.0);
#285=FILL_AREA_STYLE_COLOUR('',#331);
#286=COLOUR_RGB('',0.752941191196442,0.752941191196442,0.752941191196442);
#287=CARTESIAN_POINT('',(18.0,0.0,0.0));
#288=CARTESIAN_POINT('',(18.0,20.2,0.0));
#289=CARTESIAN_POINT('',(18.0,10.1,2.20429143688028E-015));
#290=VECTOR('',#332,1.0);
#291=CARTESIAN_POINT('',(-18.0,0.0,-2.20429143688028E-015));
#292=AXIS2_PLACEMENT_3D('',#333,#334,#335);
#293=CARTESIAN_POINT('',(-18.0,20.2,-2.20429143688028E-015));
#294=CARTESIAN_POINT('',(-18.0,10.1,-2.20429143688028E-015));
#295=VECTOR('',#336,1.0);
#296=AXIS2_PLACEMENT_3D('',#337,#338,#339);
#297=COLOUR_RGB('',0.752941191196442,0.752941191196442,0.752941191196442);
#298=CARTESIAN_POINT('',(22.5,20.2,0.0));
#299=CARTESIAN_POINT('',(22.5,23.14,0.0));
#300=CARTESIAN_POINT('',(22.5,21.67,2.75536429610035E-015));
#301=VECTOR('',#340,1.0);
#302=CARTESIAN_POINT('',(-22.5,20.2,-2.75536429610035E-015));
#303=AXIS2_PLACEMENT_3D('',#341,#342,#343);
#304=CARTESIAN_POINT('',(-22.5,23.14,-2.75536429610035E-015));
#305=CARTESIAN_POINT('',(-22.5,21.67,-2.75536429610035E-015));
#306=VECTOR('',#344,1.0);
#307=AXIS2_PLACEMENT_3D('',#345,#346,#347);
#308=COLOUR_RGB('',0.752941191196442,0.752941191196442,0.752941191196442);
#309=CARTESIAN_POINT('',(-17.1,25.1,0.0));
#310=CARTESIAN_POINT('',(-19.8,24.12,-2.42472058056831E-015));
#311=VECTOR('',#348,1.0);
#312=AXIS2_PLACEMENT_3D('',#349,#350,#351);
#313=CARTESIAN_POINT('',(17.1,25.1,2.09407686503626E-015));
#314=CARTESIAN_POINT('',(19.8,24.12,2.42472058056831E-015));
#315=VECTOR('',#352,1.0);
#316=AXIS2_PLACEMENT_3D('',#353,#354,#355);
#317=COLOUR_RGB('',0.752941191196442,0.752941191196442,0.752941191196442);
#318=CARTESIAN_POINT('',(-7.49972501417268E-016,25.1,9.67419247275968));
#319=CARTESIAN_POINT('',(4.34735255606944E-016,25.1,-9.67419247275968));
#320=AXIS2_PLACEMENT_3D('',#356,#357,#358);
#321=AXIS2_PLACEMENT_3D('',#359,#360,#361);
#322=COLOUR_RGB('',0.752941191196442,0.752941191196442,0.752941191196442);
#323=AXIS2_PLACEMENT_3D('',#362,#363,#364);
#324=AXIS2_PLACEMENT_3D('',#365,#366,#367);
#325=COLOUR_RGB('',0.752941191196442,0.752941191196442,0.752941191196442);
#326=AXIS2_PLACEMENT_3D('',#368,#369,#370);
#327=COLOUR_RGB('',0.752941191196442,0.752941191196442,0.752941191196442);
#328=COLOUR_RGB('',0.752941191196442,0.752941191196442,0.752941191196442);
#329=COLOUR_RGB('',0.752941191196442,0.752941191196442,0.752941191196442);
#330=AXIS2_PLACEMENT_3D('',#371,#372,#373);
#331=COLOUR_RGB('',0.752941191196442,0.752941191196442,0.752941191196442);
#332=DIRECTION('',(0.0,1.0,0.0));
#333=CARTESIAN_POINT('',(0.0,0.0,0.0));
#334=DIRECTION('',(0.0,-1.0,0.0));
#335=DIRECTION('',(1.0,0.0,0.0));
#336=DIRECTION('',(-0.0,-1.0,-0.0));
#337=CARTESIAN_POINT('',(0.0,20.2,0.0));
#338=DIRECTION('',(-0.0,1.0,0.0));
#339=DIRECTION('',(1.0,0.0,0.0));
#340=DIRECTION('',(0.0,1.0,0.0));
#341=CARTESIAN_POINT('',(0.0,20.2,0.0));
#342=DIRECTION('',(0.0,-1.0,0.0));
#343=DIRECTION('',(1.0,0.0,0.0));
#344=DIRECTION('',(-0.0,-1.0,-0.0));
#345=CARTESIAN_POINT('',(0.0,23.14,0.0));
#346=DIRECTION('',(-0.0,1.0,0.0));
#347=DIRECTION('',(1.0,0.0,0.0));
#348=DIRECTION('',(0.939996554641713,0.341183934647733,1.15112575338539E-016));
#349=CARTESIAN_POINT('',(0.0,23.14,0.0));
#350=DIRECTION('',(-0.0,1.0,0.0));
#351=DIRECTION('',(1.0,0.0,0.0));
#352=DIRECTION('',(0.939996554641713,-0.341183934647733,1.15112575338539E-016));
#353=CARTESIAN_POINT('',(1.20011422674593E-016,25.1,0.0));
#354=DIRECTION('',(6.12303176911189E-017,1.0,0.0));
#355=DIRECTION('',(-1.0,6.12303176911189E-017,0.0));
#356=CARTESIAN_POINT('',(4.34735255606944E-016,25.1,0.0));
#357=DIRECTION('',(-6.12303176911189E-017,-1.0,-0.0));
#358=DIRECTION('',(0.0,0.0,-1.0));
#359=CARTESIAN_POINT('',(4.34735255606944E-016,25.1,0.0));
#360=DIRECTION('',(-6.12303176911189E-017,-1.0,-0.0));
#361=DIRECTION('',(0.0,0.0,-1.0));
#362=CARTESIAN_POINT('',(0.0,20.2,0.0));
#363=DIRECTION('',(0.0,-1.0,0.0));
#364=DIRECTION('',(1.0,0.0,0.0));
#365=CARTESIAN_POINT('',(0.0,20.2,0.0));
#366=DIRECTION('',(-0.0,1.0,0.0));
#367=DIRECTION('',(1.0,0.0,0.0));
#368=CARTESIAN_POINT('',(1.20011422674593E-016,25.1,0.0));
#369=DIRECTION('',(6.12303176911189E-017,1.0,0.0));
#370=DIRECTION('',(-1.0,6.12303176911189E-017,0.0));
#371=CARTESIAN_POINT('',(0.0,0.0,0.0));
#372=DIRECTION('',(0.0,-1.0,0.0));
#373=DIRECTION('',(1.0,0.0,0.0));
ENDSEC;
END-ISO-10303-21;
