ISO-10303-21;
HEADER;
FILE_DESCRIPTION(('STEP AP214'),'1');
FILE_NAME(' ','  ',('TraceParts'),('TraceParts S.A.'),'XStep 1.0',' ',' ');
FILE_SCHEMA(('automotive_design'));
ENDSEC;
DATA;
#1=PRODUCT_DEFINITION_CONTEXT('',#9,'design');
#2=APPLICATION_PROTOCOL_DEFINITION('INTERNATIONAL STANDARD','automotive_design',1994,#9);
#3=PRODUCT_CATEGORY_RELATIONSHIP('NONE','NONE',#10,#11);
#4=SHAPE_DEFINITION_REPRESENTATION(#12,#13);
#5= (GEOMETRIC_REPRESENTATION_CONTEXT(3)GLOBAL_UNCERTAINTY_ASSIGNED_CONTEXT((#16))GLOBAL_UNIT_ASSIGNED_CONTEXT((#18,#19,#20))REPRESENTATION_CONTEXT('NONE','WORKSPACE'));
#9=APPLICATION_CONTEXT(' ');
#10=PRODUCT_CATEGORY('part','NONE');
#11=PRODUCT_RELATED_PRODUCT_CATEGORY('detail',' ',(#22));
#12=PRODUCT_DEFINITION_SHAPE('NONE','NONE',#23);
#13=ADVANCED_BREP_SHAPE_REPRESENTATION('1',(#24,#25),#5);
#16=UNCERTAINTY_MEASURE_WITH_UNIT(LENGTH_MEASURE(1.0E-006),#18,'','');
#18= (CONVERSION_BASED_UNIT('MILLIMETRE',#28)LENGTH_UNIT()NAMED_UNIT(#31));
#19= (NAMED_UNIT(#33)PLANE_ANGLE_UNIT()SI_UNIT($,.RADIAN.));
#20= (NAMED_UNIT(#33)SOLID_ANGLE_UNIT()SI_UNIT($,.STERADIAN.));
#22=PRODUCT('1','1','PART-1-DESC',(#39));
#23=PRODUCT_DEFINITION('NONE','NONE',#40,#1);
#24=MANIFOLD_SOLID_BREP('1',#41);
#25=AXIS2_PLACEMENT_3D('',#42,#43,#44);
#28=LENGTH_MEASURE_WITH_UNIT(LENGTH_MEASURE(1.0),#45);
#31=DIMENSIONAL_EXPONENTS(1.0,0.0,0.0,0.0,0.0,0.0,0.0);
#33=DIMENSIONAL_EXPONENTS(0.0,0.0,0.0,0.0,0.0,0.0,0.0);
#39=PRODUCT_CONTEXT('',#9,'mechanical');
#40=PRODUCT_DEFINITION_FORMATION_WITH_SPECIFIED_SOURCE(' ','NONE',#22,.NOT_KNOWN.);
#41=CLOSED_SHELL('',(#46,#47,#48,#49,#50,#51,#52,#53,#54,#55,#56,#57,#58,#59,#60,#61,#62,#63,#64,#65));
#42=CARTESIAN_POINT('',(0.0,0.0,0.0));
#43=DIRECTION('',(0.0,0.0,1.0));
#44=DIRECTION('',(1.0,0.0,0.0));
#45= (NAMED_UNIT(#31)LENGTH_UNIT()SI_UNIT(.MILLI.,.METRE.));
#46=ADVANCED_FACE('',(#67),#68,.T.);
#47=ADVANCED_FACE('',(#69),#70,.T.);
#48=ADVANCED_FACE('',(#71),#72,.T.);
#49=ADVANCED_FACE('',(#73),#74,.T.);
#50=ADVANCED_FACE('',(#75),#76,.T.);
#51=ADVANCED_FACE('',(#77),#78,.T.);
#52=ADVANCED_FACE('',(#79),#80,.T.);
#53=ADVANCED_FACE('',(#81),#82,.T.);
#54=ADVANCED_FACE('',(#83,#84),#85,.T.);
#55=ADVANCED_FACE('',(#86),#87,.T.);
#56=ADVANCED_FACE('',(#88),#89,.T.);
#57=ADVANCED_FACE('',(#90,#91),#92,.T.);
#58=ADVANCED_FACE('',(#93),#94,.T.);
#59=ADVANCED_FACE('',(#95),#96,.T.);
#60=ADVANCED_FACE('',(#97),#98,.T.);
#61=ADVANCED_FACE('',(#99,#100),#101,.T.);
#62=ADVANCED_FACE('',(#102),#103,.T.);
#63=ADVANCED_FACE('',(#104),#105,.T.);
#64=ADVANCED_FACE('',(#106),#107,.T.);
#65=ADVANCED_FACE('',(#108),#109,.T.);
#67=FACE_OUTER_BOUND('',#110,.T.);
#68=SPHERICAL_SURFACE('',#111,6.0);
#69=FACE_OUTER_BOUND('',#112,.T.);
#70=TOROIDAL_SURFACE('',#113,8.0,1.0);
#71=FACE_OUTER_BOUND('',#114,.T.);
#72=CYLINDRICAL_SURFACE('',#115,9.0);
#73=FACE_OUTER_BOUND('',#116,.T.);
#74=TOROIDAL_SURFACE('',#117,11.25,0.25);
#75=FACE_OUTER_BOUND('',#118,.T.);
#76=CYLINDRICAL_SURFACE('',#119,11.5);
#77=FACE_OUTER_BOUND('',#120,.T.);
#78=TOROIDAL_SURFACE('',#121,11.25,0.249999999999999);
#79=FACE_OUTER_BOUND('',#122,.T.);
#80=CONICAL_SURFACE('',#123,6.88048681241128,0.523598775598299);
#81=FACE_OUTER_BOUND('',#124,.T.);
#82=TOROIDAL_SURFACE('',#125,6.03611204372145,0.249999999999988);
#83=FACE_OUTER_BOUND('',#126,.T.);
#84=FACE_BOUND('',#127,.T.);
#85=PLANE('',#128);
#86=FACE_OUTER_BOUND('',#129,.T.);
#87=TOROIDAL_SURFACE('',#130,6.03611204372145,0.249999999999988);
#88=FACE_OUTER_BOUND('',#131,.T.);
#89=CONICAL_SURFACE('',#132,6.88048681241128,0.523598775598299);
#90=FACE_OUTER_BOUND('',#133,.T.);
#91=FACE_BOUND('',#134,.T.);
#92=PLANE('',#135);
#93=FACE_OUTER_BOUND('',#136,.T.);
#94=TOROIDAL_SURFACE('',#137,11.25,0.249999999999999);
#95=FACE_OUTER_BOUND('',#138,.T.);
#96=CYLINDRICAL_SURFACE('',#139,11.5);
#97=FACE_OUTER_BOUND('',#140,.T.);
#98=TOROIDAL_SURFACE('',#141,11.25,0.25);
#99=FACE_BOUND('',#142,.T.);
#100=FACE_OUTER_BOUND('',#143,.T.);
#101=PLANE('',#144);
#102=FACE_OUTER_BOUND('',#145,.T.);
#103=CYLINDRICAL_SURFACE('',#146,9.0);
#104=FACE_OUTER_BOUND('',#147,.T.);
#105=TOROIDAL_SURFACE('',#148,8.0,1.0);
#106=FACE_OUTER_BOUND('',#149,.T.);
#107=PLANE('',#150);
#108=FACE_OUTER_BOUND('',#151,.T.);
#109=SPHERICAL_SURFACE('',#152,6.0);
#110=EDGE_LOOP('',(#153,#154,#155,#156));
#111=AXIS2_PLACEMENT_3D('',#157,#158,#159);
#112=EDGE_LOOP('',(#160,#161,#162,#163,#164,#165));
#113=AXIS2_PLACEMENT_3D('',#166,#167,#168);
#114=EDGE_LOOP('',(#169,#170,#171,#172,#173));
#115=AXIS2_PLACEMENT_3D('',#174,#175,#176);
#116=EDGE_LOOP('',(#177,#178,#179,#180,#181,#182));
#117=AXIS2_PLACEMENT_3D('',#183,#184,#185);
#118=EDGE_LOOP('',(#186,#187,#188,#189,#190,#191));
#119=AXIS2_PLACEMENT_3D('',#192,#193,#194);
#120=EDGE_LOOP('',(#195,#196,#197,#198,#199,#200));
#121=AXIS2_PLACEMENT_3D('',#201,#202,#203);
#122=EDGE_LOOP('',(#204,#205,#206,#207,#208));
#123=AXIS2_PLACEMENT_3D('',#209,#210,#211);
#124=EDGE_LOOP('',(#212,#213,#214,#215,#216,#217));
#125=AXIS2_PLACEMENT_3D('',#218,#219,#220);
#126=EDGE_LOOP('',(#221,#222,#223));
#127=EDGE_LOOP('',(#224,#225,#226));
#128=AXIS2_PLACEMENT_3D('',#227,#228,#229);
#129=EDGE_LOOP('',(#230,#231,#232,#233,#234));
#130=AXIS2_PLACEMENT_3D('',#235,#236,#237);
#131=EDGE_LOOP('',(#238,#239,#240,#241,#242));
#132=AXIS2_PLACEMENT_3D('',#243,#244,#245);
#133=EDGE_LOOP('',(#246,#247,#248));
#134=EDGE_LOOP('',(#249,#250));
#135=AXIS2_PLACEMENT_3D('',#251,#252,#253);
#136=EDGE_LOOP('',(#254,#255,#256,#257,#258));
#137=AXIS2_PLACEMENT_3D('',#259,#260,#261);
#138=EDGE_LOOP('',(#262,#263,#264,#265,#266,#267));
#139=AXIS2_PLACEMENT_3D('',#268,#269,#270);
#140=EDGE_LOOP('',(#271,#272,#273,#274,#275));
#141=AXIS2_PLACEMENT_3D('',#276,#277,#278);
#142=EDGE_LOOP('',(#279,#280));
#143=EDGE_LOOP('',(#281,#282,#283));
#144=AXIS2_PLACEMENT_3D('',#284,#285,#286);
#145=EDGE_LOOP('',(#287,#288,#289,#290,#291));
#146=AXIS2_PLACEMENT_3D('',#292,#293,#294);
#147=EDGE_LOOP('',(#295,#296,#297,#298,#299));
#148=AXIS2_PLACEMENT_3D('',#300,#301,#302);
#149=EDGE_LOOP('',(#303,#304,#305));
#150=AXIS2_PLACEMENT_3D('',#306,#307,#308);
#151=EDGE_LOOP('',(#309,#310,#311));
#152=AXIS2_PLACEMENT_3D('',#312,#313,#314);
#153=ORIENTED_EDGE('',*,*,#315,.F.);
#154=ORIENTED_EDGE('',*,*,#316,.F.);
#155=ORIENTED_EDGE('',*,*,#317,.F.);
#156=ORIENTED_EDGE('',*,*,#318,.F.);
#157=CARTESIAN_POINT('',(0.0,2.27240536542516E-016,1.4));
#158=DIRECTION('',(0.0,0.0,1.0));
#159=DIRECTION('',(1.0,0.0,0.0));
#160=ORIENTED_EDGE('',*,*,#319,.F.);
#161=ORIENTED_EDGE('',*,*,#320,.T.);
#162=ORIENTED_EDGE('',*,*,#321,.T.);
#163=ORIENTED_EDGE('',*,*,#322,.F.);
#164=ORIENTED_EDGE('',*,*,#323,.F.);
#165=ORIENTED_EDGE('',*,*,#324,.F.);
#166=CARTESIAN_POINT('',(0.0,0.0,-7.1));
#167=DIRECTION('',(-0.0,0.0,-1.0));
#168=DIRECTION('',(-1.0,0.0,0.0));
#169=ORIENTED_EDGE('',*,*,#325,.F.);
#170=ORIENTED_EDGE('',*,*,#326,.T.);
#171=ORIENTED_EDGE('',*,*,#327,.F.);
#172=ORIENTED_EDGE('',*,*,#328,.F.);
#173=ORIENTED_EDGE('',*,*,#321,.F.);
#174=CARTESIAN_POINT('',(0.0,0.0,-3.55));
#175=DIRECTION('',(-0.0,-0.0,1.0));
#176=DIRECTION('',(0.0,1.0,0.0));
#177=ORIENTED_EDGE('',*,*,#329,.F.);
#178=ORIENTED_EDGE('',*,*,#330,.T.);
#179=ORIENTED_EDGE('',*,*,#331,.T.);
#180=ORIENTED_EDGE('',*,*,#332,.F.);
#181=ORIENTED_EDGE('',*,*,#333,.F.);
#182=ORIENTED_EDGE('',*,*,#334,.F.);
#183=CARTESIAN_POINT('',(0.0,0.0,0.249999999999999));
#184=DIRECTION('',(-0.0,0.0,-1.0));
#185=DIRECTION('',(-1.0,0.0,0.0));
#186=ORIENTED_EDGE('',*,*,#335,.F.);
#187=ORIENTED_EDGE('',*,*,#336,.T.);
#188=ORIENTED_EDGE('',*,*,#337,.T.);
#189=ORIENTED_EDGE('',*,*,#338,.F.);
#190=ORIENTED_EDGE('',*,*,#339,.F.);
#191=ORIENTED_EDGE('',*,*,#331,.F.);
#192=CARTESIAN_POINT('',(0.0,0.0,0.999999999999998));
#193=DIRECTION('',(-0.0,-0.0,1.0));
#194=DIRECTION('',(0.0,1.0,0.0));
#195=ORIENTED_EDGE('',*,*,#340,.F.);
#196=ORIENTED_EDGE('',*,*,#341,.T.);
#197=ORIENTED_EDGE('',*,*,#342,.T.);
#198=ORIENTED_EDGE('',*,*,#343,.F.);
#199=ORIENTED_EDGE('',*,*,#336,.F.);
#200=ORIENTED_EDGE('',*,*,#344,.F.);
#201=CARTESIAN_POINT('',(0.0,0.0,1.75));
#202=DIRECTION('',(-0.0,0.0,-1.0));
#203=DIRECTION('',(-1.0,0.0,0.0));
#204=ORIENTED_EDGE('',*,*,#345,.F.);
#205=ORIENTED_EDGE('',*,*,#346,.T.);
#206=ORIENTED_EDGE('',*,*,#347,.T.);
#207=ORIENTED_EDGE('',*,*,#348,.F.);
#208=ORIENTED_EDGE('',*,*,#349,.F.);
#209=CARTESIAN_POINT('',(0.0,0.0,3.0875));
#210=DIRECTION('',(-0.0,-0.0,-1.0));
#211=DIRECTION('',(0.0,1.0,0.0));
#212=ORIENTED_EDGE('',*,*,#350,.F.);
#213=ORIENTED_EDGE('',*,*,#351,.T.);
#214=ORIENTED_EDGE('',*,*,#352,.T.);
#215=ORIENTED_EDGE('',*,*,#353,.F.);
#216=ORIENTED_EDGE('',*,*,#346,.F.);
#217=ORIENTED_EDGE('',*,*,#354,.F.);
#218=CARTESIAN_POINT('',(0.0,0.0,4.05));
#219=DIRECTION('',(-0.0,0.0,-1.0));
#220=DIRECTION('',(-1.0,0.0,0.0));
#221=ORIENTED_EDGE('',*,*,#352,.F.);
#222=ORIENTED_EDGE('',*,*,#351,.F.);
#223=ORIENTED_EDGE('',*,*,#355,.F.);
#224=ORIENTED_EDGE('',*,*,#317,.T.);
#225=ORIENTED_EDGE('',*,*,#356,.T.);
#226=ORIENTED_EDGE('',*,*,#318,.T.);
#227=CARTESIAN_POINT('',(0.0,5.6443652191945,4.3));
#228=DIRECTION('',(0.0,0.0,1.0));
#229=DIRECTION('',(1.0,0.0,0.0));
#230=ORIENTED_EDGE('',*,*,#350,.T.);
#231=ORIENTED_EDGE('',*,*,#357,.F.);
#232=ORIENTED_EDGE('',*,*,#347,.F.);
#233=ORIENTED_EDGE('',*,*,#353,.T.);
#234=ORIENTED_EDGE('',*,*,#355,.T.);
#235=CARTESIAN_POINT('',(0.0,0.0,4.05));
#236=DIRECTION('',(-0.0,0.0,-1.0));
#237=DIRECTION('',(-1.0,0.0,0.0));
#238=ORIENTED_EDGE('',*,*,#345,.T.);
#239=ORIENTED_EDGE('',*,*,#358,.F.);
#240=ORIENTED_EDGE('',*,*,#348,.T.);
#241=ORIENTED_EDGE('',*,*,#357,.T.);
#242=ORIENTED_EDGE('',*,*,#354,.T.);
#243=CARTESIAN_POINT('',(0.0,0.0,3.0875));
#244=DIRECTION('',(-0.0,-0.0,-1.0));
#245=DIRECTION('',(0.0,1.0,0.0));
#246=ORIENTED_EDGE('',*,*,#342,.F.);
#247=ORIENTED_EDGE('',*,*,#341,.F.);
#248=ORIENTED_EDGE('',*,*,#359,.F.);
#249=ORIENTED_EDGE('',*,*,#349,.T.);
#250=ORIENTED_EDGE('',*,*,#358,.T.);
#251=CARTESIAN_POINT('',(0.0,9.3791776150775,2.0));
#252=DIRECTION('',(0.0,0.0,1.0));
#253=DIRECTION('',(1.0,0.0,0.0));
#254=ORIENTED_EDGE('',*,*,#340,.T.);
#255=ORIENTED_EDGE('',*,*,#360,.F.);
#256=ORIENTED_EDGE('',*,*,#337,.F.);
#257=ORIENTED_EDGE('',*,*,#343,.T.);
#258=ORIENTED_EDGE('',*,*,#359,.T.);
#259=CARTESIAN_POINT('',(0.0,0.0,1.75));
#260=DIRECTION('',(-0.0,0.0,-1.0));
#261=DIRECTION('',(-1.0,0.0,0.0));
#262=ORIENTED_EDGE('',*,*,#335,.T.);
#263=ORIENTED_EDGE('',*,*,#330,.F.);
#264=ORIENTED_EDGE('',*,*,#361,.F.);
#265=ORIENTED_EDGE('',*,*,#338,.T.);
#266=ORIENTED_EDGE('',*,*,#360,.T.);
#267=ORIENTED_EDGE('',*,*,#344,.T.);
#268=CARTESIAN_POINT('',(0.0,0.0,0.999999999999998));
#269=DIRECTION('',(-0.0,-0.0,1.0));
#270=DIRECTION('',(0.0,1.0,0.0));
#271=ORIENTED_EDGE('',*,*,#329,.T.);
#272=ORIENTED_EDGE('',*,*,#362,.F.);
#273=ORIENTED_EDGE('',*,*,#332,.T.);
#274=ORIENTED_EDGE('',*,*,#339,.T.);
#275=ORIENTED_EDGE('',*,*,#361,.T.);
#276=CARTESIAN_POINT('',(0.0,0.0,0.249999999999999));
#277=DIRECTION('',(-0.0,0.0,-1.0));
#278=DIRECTION('',(-1.0,0.0,0.0));
#279=ORIENTED_EDGE('',*,*,#326,.F.);
#280=ORIENTED_EDGE('',*,*,#363,.F.);
#281=ORIENTED_EDGE('',*,*,#333,.T.);
#282=ORIENTED_EDGE('',*,*,#362,.T.);
#283=ORIENTED_EDGE('',*,*,#334,.T.);
#284=CARTESIAN_POINT('',(0.0,10.125,-5.20417042793042E-016));
#285=DIRECTION('',(-0.0,0.0,-1.0));
#286=DIRECTION('',(-1.0,0.0,0.0));
#287=ORIENTED_EDGE('',*,*,#325,.T.);
#288=ORIENTED_EDGE('',*,*,#320,.F.);
#289=ORIENTED_EDGE('',*,*,#364,.F.);
#290=ORIENTED_EDGE('',*,*,#327,.T.);
#291=ORIENTED_EDGE('',*,*,#363,.T.);
#292=CARTESIAN_POINT('',(0.0,0.0,-3.55));
#293=DIRECTION('',(-0.0,-0.0,1.0));
#294=DIRECTION('',(0.0,1.0,0.0));
#295=ORIENTED_EDGE('',*,*,#319,.T.);
#296=ORIENTED_EDGE('',*,*,#365,.F.);
#297=ORIENTED_EDGE('',*,*,#322,.T.);
#298=ORIENTED_EDGE('',*,*,#328,.T.);
#299=ORIENTED_EDGE('',*,*,#364,.T.);
#300=CARTESIAN_POINT('',(0.0,0.0,-7.1));
#301=DIRECTION('',(-0.0,0.0,-1.0));
#302=DIRECTION('',(-1.0,0.0,0.0));
#303=ORIENTED_EDGE('',*,*,#323,.T.);
#304=ORIENTED_EDGE('',*,*,#365,.T.);
#305=ORIENTED_EDGE('',*,*,#324,.T.);
#306=CARTESIAN_POINT('',(0.0,4.0,-8.1));
#307=DIRECTION('',(-0.0,0.0,-1.0));
#308=DIRECTION('',(-1.0,0.0,0.0));
#309=ORIENTED_EDGE('',*,*,#315,.T.);
#310=ORIENTED_EDGE('',*,*,#356,.F.);
#311=ORIENTED_EDGE('',*,*,#316,.T.);
#312=CARTESIAN_POINT('',(0.0,2.27240536542516E-016,1.4));
#313=DIRECTION('',(0.0,0.0,1.0));
#314=DIRECTION('',(1.0,0.0,0.0));
#315=EDGE_CURVE('',#366,#367,#368,.T.);
#316=EDGE_CURVE('',#369,#366,#370,.T.);
#317=EDGE_CURVE('',#371,#369,#372,.T.);
#318=EDGE_CURVE('',#367,#371,#373,.T.);
#319=EDGE_CURVE('',#374,#375,#376,.T.);
#320=EDGE_CURVE('',#374,#377,#378,.T.);
#321=EDGE_CURVE('',#377,#379,#380,.T.);
#322=EDGE_CURVE('',#381,#379,#382,.T.);
#323=EDGE_CURVE('',#383,#381,#384,.T.);
#324=EDGE_CURVE('',#375,#383,#385,.T.);
#325=EDGE_CURVE('',#386,#377,#387,.T.);
#326=EDGE_CURVE('',#386,#388,#389,.T.);
#327=EDGE_CURVE('',#390,#388,#391,.T.);
#328=EDGE_CURVE('',#379,#390,#392,.T.);
#329=EDGE_CURVE('',#393,#394,#395,.T.);
#330=EDGE_CURVE('',#393,#396,#397,.T.);
#331=EDGE_CURVE('',#396,#398,#399,.T.);
#332=EDGE_CURVE('',#400,#398,#401,.T.);
#333=EDGE_CURVE('',#402,#400,#403,.T.);
#334=EDGE_CURVE('',#394,#402,#404,.T.);
#335=EDGE_CURVE('',#405,#396,#406,.T.);
#336=EDGE_CURVE('',#405,#407,#408,.T.);
#337=EDGE_CURVE('',#407,#409,#410,.T.);
#338=EDGE_CURVE('',#411,#409,#412,.T.);
#339=EDGE_CURVE('',#398,#411,#413,.T.);
#340=EDGE_CURVE('',#414,#415,#416,.T.);
#341=EDGE_CURVE('',#414,#417,#418,.T.);
#342=EDGE_CURVE('',#417,#419,#420,.T.);
#343=EDGE_CURVE('',#407,#419,#421,.T.);
#344=EDGE_CURVE('',#415,#405,#422,.T.);
#345=EDGE_CURVE('',#423,#424,#425,.T.);
#346=EDGE_CURVE('',#423,#426,#427,.T.);
#347=EDGE_CURVE('',#426,#428,#429,.T.);
#348=EDGE_CURVE('',#430,#428,#431,.T.);
#349=EDGE_CURVE('',#424,#430,#432,.T.);
#350=EDGE_CURVE('',#433,#434,#435,.T.);
#351=EDGE_CURVE('',#433,#436,#437,.T.);
#352=EDGE_CURVE('',#436,#438,#439,.T.);
#353=EDGE_CURVE('',#426,#438,#440,.T.);
#354=EDGE_CURVE('',#434,#423,#441,.T.);
#355=EDGE_CURVE('',#438,#433,#442,.T.);
#356=EDGE_CURVE('',#369,#367,#443,.T.);
#357=EDGE_CURVE('',#428,#434,#444,.T.);
#358=EDGE_CURVE('',#430,#424,#445,.T.);
#359=EDGE_CURVE('',#419,#414,#446,.T.);
#360=EDGE_CURVE('',#409,#415,#447,.T.);
#361=EDGE_CURVE('',#411,#393,#448,.T.);
#362=EDGE_CURVE('',#400,#394,#449,.T.);
#363=EDGE_CURVE('',#388,#386,#450,.T.);
#364=EDGE_CURVE('',#390,#374,#451,.T.);
#365=EDGE_CURVE('',#381,#375,#452,.T.);
#366=VERTEX_POINT('',#453);
#367=VERTEX_POINT('',#454);
#368=CIRCLE('',#455,6.0);
#369=VERTEX_POINT('',#456);
#370=CIRCLE('',#457,6.0);
#371=VERTEX_POINT('',#458);
#372=CIRCLE('',#459,5.25261839466756);
#373=CIRCLE('',#460,5.25261839466756);
#374=VERTEX_POINT('',#461);
#375=VERTEX_POINT('',#462);
#376=CIRCLE('',#463,1.0);
#377=VERTEX_POINT('',#464);
#378=CIRCLE('',#465,9.0);
#379=VERTEX_POINT('',#466);
#380=CIRCLE('',#467,9.0);
#381=VERTEX_POINT('',#468);
#382=CIRCLE('',#469,1.0);
#383=VERTEX_POINT('',#470);
#384=CIRCLE('',#471,8.0);
#385=CIRCLE('',#472,8.0);
#386=VERTEX_POINT('',#473);
#387=LINE('',#474,#475);
#388=VERTEX_POINT('',#476);
#389=CIRCLE('',#477,9.0);
#390=VERTEX_POINT('',#478);
#391=LINE('',#479,#480);
#392=CIRCLE('',#481,9.0);
#393=VERTEX_POINT('',#482);
#394=VERTEX_POINT('',#483);
#395=CIRCLE('',#484,0.25);
#396=VERTEX_POINT('',#485);
#397=CIRCLE('',#486,11.5);
#398=VERTEX_POINT('',#487);
#399=CIRCLE('',#488,11.5);
#400=VERTEX_POINT('',#489);
#401=CIRCLE('',#490,0.25);
#402=VERTEX_POINT('',#491);
#403=CIRCLE('',#492,11.25);
#404=CIRCLE('',#493,11.25);
#405=VERTEX_POINT('',#494);
#406=LINE('',#495,#496);
#407=VERTEX_POINT('',#497);
#408=CIRCLE('',#498,11.5);
#409=VERTEX_POINT('',#499);
#410=CIRCLE('',#500,11.5);
#411=VERTEX_POINT('',#501);
#412=LINE('',#502,#503);
#413=CIRCLE('',#504,11.5);
#414=VERTEX_POINT('',#505);
#415=VERTEX_POINT('',#506);
#416=CIRCLE('',#507,0.249999999999999);
#417=VERTEX_POINT('',#508);
#418=CIRCLE('',#509,11.25);
#419=VERTEX_POINT('',#510);
#420=CIRCLE('',#511,11.25);
#421=CIRCLE('',#512,0.249999999999999);
#422=CIRCLE('',#513,11.5);
#423=VERTEX_POINT('',#514);
#424=VERTEX_POINT('',#515);
#425=LINE('',#516,#517);
#426=VERTEX_POINT('',#518);
#427=CIRCLE('',#519,6.25261839466756);
#428=VERTEX_POINT('',#520);
#429=CIRCLE('',#521,6.25261839466756);
#430=VERTEX_POINT('',#522);
#431=LINE('',#523,#524);
#432=CIRCLE('',#525,7.508355230155);
#433=VERTEX_POINT('',#526);
#434=VERTEX_POINT('',#527);
#435=CIRCLE('',#528,0.249999999999988);
#436=VERTEX_POINT('',#529);
#437=CIRCLE('',#530,6.03611204372145);
#438=VERTEX_POINT('',#531);
#439=CIRCLE('',#532,6.03611204372145);
#440=CIRCLE('',#533,0.249999999999988);
#441=CIRCLE('',#534,6.25261839466756);
#442=CIRCLE('',#535,6.03611204372145);
#443=CIRCLE('',#536,5.25261839466756);
#444=CIRCLE('',#537,6.25261839466756);
#445=CIRCLE('',#538,7.508355230155);
#446=CIRCLE('',#539,11.25);
#447=CIRCLE('',#540,11.5);
#448=CIRCLE('',#541,11.5);
#449=CIRCLE('',#542,11.25);
#450=CIRCLE('',#543,9.0);
#451=CIRCLE('',#544,9.0);
#452=CIRCLE('',#545,8.0);
#453=CARTESIAN_POINT('',(0.0,-1.08313212283347E-015,7.4));
#454=CARTESIAN_POINT('',(-5.25261839466756,8.70479522573935E-016,4.3));
#455=AXIS2_PLACEMENT_3D('',#546,#547,#548);
#456=CARTESIAN_POINT('',(5.25261839466756,-4.15998449488903E-016,4.3));
#457=AXIS2_PLACEMENT_3D('',#549,#550,#551);
#458=CARTESIAN_POINT('',(0.0,5.25261839466756,4.3));
#459=AXIS2_PLACEMENT_3D('',#552,#553,#554);
#460=AXIS2_PLACEMENT_3D('',#555,#556,#557);
#461=CARTESIAN_POINT('',(-9.0,-1.10214571844014E-015,-7.1));
#462=CARTESIAN_POINT('',(-8.0,-9.79685083057902E-016,-8.1));
#463=AXIS2_PLACEMENT_3D('',#558,#559,#560);
#464=CARTESIAN_POINT('',(0.0,9.0,-7.1));
#465=AXIS2_PLACEMENT_3D('',#561,#562,#563);
#466=CARTESIAN_POINT('',(9.0,1.10214571844014E-015,-7.1));
#467=AXIS2_PLACEMENT_3D('',#564,#565,#566);
#468=CARTESIAN_POINT('',(8.0,9.79685083057902E-016,-8.1));
#469=AXIS2_PLACEMENT_3D('',#567,#568,#569);
#470=CARTESIAN_POINT('',(0.0,8.0,-8.1));
#471=AXIS2_PLACEMENT_3D('',#570,#571,#572);
#472=AXIS2_PLACEMENT_3D('',#573,#574,#575);
#473=CARTESIAN_POINT('',(0.0,9.0,0.0));
#474=CARTESIAN_POINT('',(-1.10214571844014E-015,9.0,-3.55));
#475=VECTOR('',#576,1.0);
#476=CARTESIAN_POINT('',(1.10214571844014E-015,-9.0,0.0));
#477=AXIS2_PLACEMENT_3D('',#577,#578,#579);
#478=CARTESIAN_POINT('',(1.10214571844014E-015,-9.0,-7.1));
#479=CARTESIAN_POINT('',(1.10214571844014E-015,-9.0,-3.55));
#480=VECTOR('',#580,1.0);
#481=AXIS2_PLACEMENT_3D('',#581,#582,#583);
#482=CARTESIAN_POINT('',(-11.5,-1.40829730689573E-015,0.249999999999999));
#483=CARTESIAN_POINT('',(-11.25,-1.37768214805017E-015,-1.11022302462516E-015));
#484=AXIS2_PLACEMENT_3D('',#584,#585,#586);
#485=CARTESIAN_POINT('',(0.0,11.5,0.249999999999999));
#486=AXIS2_PLACEMENT_3D('',#587,#588,#589);
#487=CARTESIAN_POINT('',(11.5,1.40829730689573E-015,0.249999999999999));
#488=AXIS2_PLACEMENT_3D('',#590,#591,#592);
#489=CARTESIAN_POINT('',(11.25,1.37768214805017E-015,-1.11022302462516E-015));
#490=AXIS2_PLACEMENT_3D('',#593,#594,#595);
#491=CARTESIAN_POINT('',(0.0,11.25,-1.04083408558608E-015));
#492=AXIS2_PLACEMENT_3D('',#596,#597,#598);
#493=AXIS2_PLACEMENT_3D('',#599,#600,#601);
#494=CARTESIAN_POINT('',(0.0,11.5,1.75));
#495=CARTESIAN_POINT('',(-1.40829730689573E-015,11.5,0.999999999999998));
#496=VECTOR('',#602,1.0);
#497=CARTESIAN_POINT('',(11.5,1.40829730689573E-015,1.75));
#498=AXIS2_PLACEMENT_3D('',#603,#604,#605);
#499=CARTESIAN_POINT('',(1.40829730689573E-015,-11.5,1.75));
#500=AXIS2_PLACEMENT_3D('',#606,#607,#608);
#501=CARTESIAN_POINT('',(1.40829730689573E-015,-11.5,0.249999999999999));
#502=CARTESIAN_POINT('',(1.40829730689573E-015,-11.5,0.999999999999998));
#503=VECTOR('',#609,1.0);
#504=AXIS2_PLACEMENT_3D('',#610,#611,#612);
#505=CARTESIAN_POINT('',(-11.25,-1.37768214805017E-015,2.0));
#506=CARTESIAN_POINT('',(-11.5,-1.40829730689573E-015,1.75));
#507=AXIS2_PLACEMENT_3D('',#613,#614,#615);
#508=CARTESIAN_POINT('',(0.0,11.25,2.0));
#509=AXIS2_PLACEMENT_3D('',#616,#617,#618);
#510=CARTESIAN_POINT('',(11.25,1.37768214805017E-015,2.0));
#511=AXIS2_PLACEMENT_3D('',#619,#620,#621);
#512=AXIS2_PLACEMENT_3D('',#622,#623,#624);
#513=AXIS2_PLACEMENT_3D('',#625,#626,#627);
#514=CARTESIAN_POINT('',(0.0,6.25261839466756,4.175));
#515=CARTESIAN_POINT('',(0.0,7.508355230155,2.0));
#516=CARTESIAN_POINT('',(-8.42588786786993E-016,6.88048681241128,3.0875));
#517=VECTOR('',#628,1.0);
#518=CARTESIAN_POINT('',(6.25261839466756,7.65699621413657E-016,4.175));
#519=AXIS2_PLACEMENT_3D('',#629,#630,#631);
#520=CARTESIAN_POINT('',(7.65699621413657E-016,-6.25261839466756,4.175));
#521=AXIS2_PLACEMENT_3D('',#632,#633,#634);
#522=CARTESIAN_POINT('',(9.19477952160329E-016,-7.508355230155,2.0));
#523=CARTESIAN_POINT('',(8.42588786786993E-016,-6.88048681241128,3.0875));
#524=VECTOR('',#635,1.0);
#525=AXIS2_PLACEMENT_3D('',#636,#637,#638);
#526=CARTESIAN_POINT('',(-6.03611204372145,-7.39186116112506E-016,4.3));
#527=CARTESIAN_POINT('',(-6.25261839466756,-7.65699621413657E-016,4.175));
#528=AXIS2_PLACEMENT_3D('',#639,#640,#641);
#529=CARTESIAN_POINT('',(0.0,6.03611204372145,4.3));
#530=AXIS2_PLACEMENT_3D('',#642,#643,#644);
#531=CARTESIAN_POINT('',(6.03611204372145,7.39186116112506E-016,4.3));
#532=AXIS2_PLACEMENT_3D('',#645,#646,#647);
#533=AXIS2_PLACEMENT_3D('',#648,#649,#650);
#534=AXIS2_PLACEMENT_3D('',#651,#652,#653);
#535=AXIS2_PLACEMENT_3D('',#654,#655,#656);
#536=AXIS2_PLACEMENT_3D('',#657,#658,#659);
#537=AXIS2_PLACEMENT_3D('',#660,#661,#662);
#538=AXIS2_PLACEMENT_3D('',#663,#664,#665);
#539=AXIS2_PLACEMENT_3D('',#666,#667,#668);
#540=AXIS2_PLACEMENT_3D('',#669,#670,#671);
#541=AXIS2_PLACEMENT_3D('',#672,#673,#674);
#542=AXIS2_PLACEMENT_3D('',#675,#676,#677);
#543=AXIS2_PLACEMENT_3D('',#678,#679,#680);
#544=AXIS2_PLACEMENT_3D('',#681,#682,#683);
#545=AXIS2_PLACEMENT_3D('',#684,#685,#686);
#546=CARTESIAN_POINT('',(4.17325892943105E-064,2.27240536542516E-016,1.4));
#547=DIRECTION('',(-1.22460635382238E-016,-1.0,0.0));
#548=DIRECTION('',(0.0,0.0,1.0));
#549=CARTESIAN_POINT('',(4.17325892943105E-064,2.27240536542516E-016,1.4));
#550=DIRECTION('',(-1.22460635382238E-016,-1.0,0.0));
#551=DIRECTION('',(0.0,0.0,1.0));
#552=CARTESIAN_POINT('',(0.0,0.0,4.3));
#553=DIRECTION('',(0.0,0.0,-1.0));
#554=DIRECTION('',(0.0,1.0,0.0));
#555=CARTESIAN_POINT('',(0.0,0.0,4.3));
#556=DIRECTION('',(0.0,0.0,-1.0));
#557=DIRECTION('',(0.0,1.0,0.0));
#558=CARTESIAN_POINT('',(-8.0,-9.79685083057902E-016,-7.1));
#559=DIRECTION('',(1.22460635382238E-016,-1.0,-0.0));
#560=DIRECTION('',(-1.0,-1.22460635382238E-016,0.0));
#561=CARTESIAN_POINT('',(0.0,0.0,-7.1));
#562=DIRECTION('',(0.0,0.0,-1.0));
#563=DIRECTION('',(0.0,1.0,0.0));
#564=CARTESIAN_POINT('',(0.0,0.0,-7.1));
#565=DIRECTION('',(0.0,0.0,-1.0));
#566=DIRECTION('',(0.0,1.0,0.0));
#567=CARTESIAN_POINT('',(8.0,9.79685083057902E-016,-7.1));
#568=DIRECTION('',(1.22460635382238E-016,-1.0,-0.0));
#569=DIRECTION('',(1.0,1.22460635382238E-016,0.0));
#570=CARTESIAN_POINT('',(0.0,0.0,-8.1));
#571=DIRECTION('',(0.0,0.0,-1.0));
#572=DIRECTION('',(0.0,1.0,0.0));
#573=CARTESIAN_POINT('',(0.0,0.0,-8.1));
#574=DIRECTION('',(0.0,0.0,-1.0));
#575=DIRECTION('',(0.0,1.0,0.0));
#576=DIRECTION('',(-0.0,0.0,-1.0));
#577=CARTESIAN_POINT('',(0.0,0.0,0.0));
#578=DIRECTION('',(0.0,0.0,-1.0));
#579=DIRECTION('',(0.0,1.0,0.0));
#580=DIRECTION('',(-0.0,0.0,1.0));
#581=CARTESIAN_POINT('',(0.0,0.0,-7.1));
#582=DIRECTION('',(0.0,0.0,-1.0));
#583=DIRECTION('',(0.0,1.0,0.0));
#584=CARTESIAN_POINT('',(-11.25,-1.37768214805017E-015,0.249999999999999));
#585=DIRECTION('',(1.22460635382238E-016,-1.0,-0.0));
#586=DIRECTION('',(-1.0,-1.22460635382238E-016,0.0));
#587=CARTESIAN_POINT('',(0.0,0.0,0.249999999999999));
#588=DIRECTION('',(0.0,0.0,-1.0));
#589=DIRECTION('',(0.0,1.0,0.0));
#590=CARTESIAN_POINT('',(0.0,0.0,0.249999999999999));
#591=DIRECTION('',(0.0,0.0,-1.0));
#592=DIRECTION('',(0.0,1.0,0.0));
#593=CARTESIAN_POINT('',(11.25,1.37768214805017E-015,0.249999999999999));
#594=DIRECTION('',(1.22460635382238E-016,-1.0,-0.0));
#595=DIRECTION('',(1.0,1.22460635382238E-016,0.0));
#596=CARTESIAN_POINT('',(0.0,0.0,-1.11022302462516E-015));
#597=DIRECTION('',(0.0,0.0,-1.0));
#598=DIRECTION('',(0.0,1.0,0.0));
#599=CARTESIAN_POINT('',(0.0,0.0,-1.11022302462516E-015));
#600=DIRECTION('',(0.0,0.0,-1.0));
#601=DIRECTION('',(0.0,1.0,0.0));
#602=DIRECTION('',(-0.0,0.0,-1.0));
#603=CARTESIAN_POINT('',(0.0,0.0,1.75));
#604=DIRECTION('',(0.0,0.0,-1.0));
#605=DIRECTION('',(0.0,1.0,0.0));
#606=CARTESIAN_POINT('',(0.0,0.0,1.75));
#607=DIRECTION('',(0.0,0.0,-1.0));
#608=DIRECTION('',(0.0,1.0,0.0));
#609=DIRECTION('',(-0.0,0.0,1.0));
#610=CARTESIAN_POINT('',(0.0,0.0,0.249999999999999));
#611=DIRECTION('',(0.0,0.0,-1.0));
#612=DIRECTION('',(0.0,1.0,0.0));
#613=CARTESIAN_POINT('',(-11.25,-1.37768214805017E-015,1.75));
#614=DIRECTION('',(1.22460635382238E-016,-1.0,-0.0));
#615=DIRECTION('',(-1.0,-1.22460635382238E-016,0.0));
#616=CARTESIAN_POINT('',(0.0,0.0,2.0));
#617=DIRECTION('',(0.0,0.0,-1.0));
#618=DIRECTION('',(0.0,1.0,0.0));
#619=CARTESIAN_POINT('',(0.0,0.0,2.0));
#620=DIRECTION('',(0.0,0.0,-1.0));
#621=DIRECTION('',(0.0,1.0,0.0));
#622=CARTESIAN_POINT('',(11.25,1.37768214805017E-015,1.75));
#623=DIRECTION('',(1.22460635382238E-016,-1.0,-0.0));
#624=DIRECTION('',(1.0,1.22460635382238E-016,0.0));
#625=CARTESIAN_POINT('',(0.0,0.0,1.75));
#626=DIRECTION('',(0.0,0.0,-1.0));
#627=DIRECTION('',(0.0,1.0,0.0));
#628=DIRECTION('',(-6.12303176911189E-017,0.500000000000001,-0.866025403784438));
#629=CARTESIAN_POINT('',(0.0,0.0,4.175));
#630=DIRECTION('',(0.0,0.0,-1.0));
#631=DIRECTION('',(0.0,1.0,0.0));
#632=CARTESIAN_POINT('',(0.0,0.0,4.175));
#633=DIRECTION('',(0.0,0.0,-1.0));
#634=DIRECTION('',(0.0,1.0,0.0));
#635=DIRECTION('',(-6.12303176911189E-017,0.500000000000001,0.866025403784438));
#636=CARTESIAN_POINT('',(0.0,0.0,2.0));
#637=DIRECTION('',(0.0,0.0,-1.0));
#638=DIRECTION('',(0.0,1.0,0.0));
#639=CARTESIAN_POINT('',(-6.03611204372145,-7.39186116112506E-016,4.05));
#640=DIRECTION('',(1.22460635382238E-016,-1.0,-0.0));
#641=DIRECTION('',(-1.0,-1.22460635382238E-016,0.0));
#642=CARTESIAN_POINT('',(0.0,0.0,4.3));
#643=DIRECTION('',(0.0,0.0,-1.0));
#644=DIRECTION('',(0.0,1.0,0.0));
#645=CARTESIAN_POINT('',(0.0,0.0,4.3));
#646=DIRECTION('',(0.0,0.0,-1.0));
#647=DIRECTION('',(0.0,1.0,0.0));
#648=CARTESIAN_POINT('',(6.03611204372145,7.39186116112506E-016,4.05));
#649=DIRECTION('',(1.22460635382238E-016,-1.0,-0.0));
#650=DIRECTION('',(1.0,1.22460635382238E-016,0.0));
#651=CARTESIAN_POINT('',(0.0,0.0,4.175));
#652=DIRECTION('',(0.0,0.0,-1.0));
#653=DIRECTION('',(0.0,1.0,0.0));
#654=CARTESIAN_POINT('',(0.0,0.0,4.3));
#655=DIRECTION('',(0.0,0.0,-1.0));
#656=DIRECTION('',(0.0,1.0,0.0));
#657=CARTESIAN_POINT('',(0.0,0.0,4.3));
#658=DIRECTION('',(0.0,0.0,-1.0));
#659=DIRECTION('',(0.0,1.0,0.0));
#660=CARTESIAN_POINT('',(0.0,0.0,4.175));
#661=DIRECTION('',(0.0,0.0,-1.0));
#662=DIRECTION('',(0.0,1.0,0.0));
#663=CARTESIAN_POINT('',(0.0,0.0,2.0));
#664=DIRECTION('',(0.0,0.0,-1.0));
#665=DIRECTION('',(0.0,1.0,0.0));
#666=CARTESIAN_POINT('',(0.0,0.0,2.0));
#667=DIRECTION('',(0.0,0.0,-1.0));
#668=DIRECTION('',(0.0,1.0,0.0));
#669=CARTESIAN_POINT('',(0.0,0.0,1.75));
#670=DIRECTION('',(0.0,0.0,-1.0));
#671=DIRECTION('',(0.0,1.0,0.0));
#672=CARTESIAN_POINT('',(0.0,0.0,0.249999999999999));
#673=DIRECTION('',(0.0,0.0,-1.0));
#674=DIRECTION('',(0.0,1.0,0.0));
#675=CARTESIAN_POINT('',(0.0,0.0,-1.11022302462516E-015));
#676=DIRECTION('',(0.0,0.0,-1.0));
#677=DIRECTION('',(0.0,1.0,0.0));
#678=CARTESIAN_POINT('',(0.0,0.0,0.0));
#679=DIRECTION('',(0.0,0.0,-1.0));
#680=DIRECTION('',(0.0,1.0,0.0));
#681=CARTESIAN_POINT('',(0.0,0.0,-7.1));
#682=DIRECTION('',(0.0,0.0,-1.0));
#683=DIRECTION('',(0.0,1.0,0.0));
#684=CARTESIAN_POINT('',(0.0,0.0,-8.1));
#685=DIRECTION('',(0.0,0.0,-1.0));
#686=DIRECTION('',(0.0,1.0,0.0));
ENDSEC;
END-ISO-10303-21;
