ISO-10303-21;
HEADER;
FILE_DESCRIPTION(('STEP AP214'),'1');
FILE_NAME(' ','  ',('TraceParts'),('TraceParts S.A.'),'XStep 1.0',' ',' ');
FILE_SCHEMA(('automotive_design'));
ENDSEC;
DATA;
#1=MECHANICAL_DESIGN_GEOMETRIC_PRESENTATION_REPRESENTATION(' ',(#10,#11,#12,#13,#14,#15,#16,#17,#18,#19,#20,#21,#22,#23,#24,#25,#26,#27,#28,#29,#30,#31,#32,#33,#34,#35,#36,#37,#38,#39,#40,#41,#42,#43,#44,#45,#46,#47,#48,#49,#50,#51,#52),#6);
#2=PRODUCT_DEFINITION_CONTEXT('',#53,'design');
#3=APPLICATION_PROTOCOL_DEFINITION('INTERNATIONAL STANDARD','automotive_design',1994,#53);
#4=PRODUCT_CATEGORY_RELATIONSHIP('NONE','NONE',#54,#55);
#5=SHAPE_DEFINITION_REPRESENTATION(#56,#57);
#6= (GEOMETRIC_REPRESENTATION_CONTEXT(3)GLOBAL_UNCERTAINTY_ASSIGNED_CONTEXT((#60))GLOBAL_UNIT_ASSIGNED_CONTEXT((#62,#63,#64))REPRESENTATION_CONTEXT('NONE','WORKSPACE'));
#10=STYLED_ITEM('',(#66),#67);
#11=STYLED_ITEM('',(#68),#69);
#12=STYLED_ITEM('',(#70),#71);
#13=STYLED_ITEM('',(#72),#73);
#14=STYLED_ITEM('',(#74),#75);
#15=STYLED_ITEM('',(#76),#77);
#16=STYLED_ITEM('',(#78),#79);
#17=STYLED_ITEM('',(#80),#81);
#18=STYLED_ITEM('',(#82),#83);
#19=STYLED_ITEM('',(#84),#85);
#20=STYLED_ITEM('',(#86),#87);
#21=STYLED_ITEM('',(#88),#89);
#22=STYLED_ITEM('',(#90),#91);
#23=STYLED_ITEM('',(#92),#93);
#24=STYLED_ITEM('',(#94),#95);
#25=STYLED_ITEM('',(#96),#97);
#26=STYLED_ITEM('',(#98),#99);
#27=STYLED_ITEM('',(#100),#101);
#28=STYLED_ITEM('',(#102),#103);
#29=STYLED_ITEM('',(#104),#105);
#30=STYLED_ITEM('',(#106),#107);
#31=STYLED_ITEM('',(#108),#109);
#32=STYLED_ITEM('',(#110),#111);
#33=STYLED_ITEM('',(#112),#113);
#34=STYLED_ITEM('',(#114),#115);
#35=STYLED_ITEM('',(#116),#117);
#36=STYLED_ITEM('',(#118),#119);
#37=STYLED_ITEM('',(#120),#121);
#38=STYLED_ITEM('',(#122),#123);
#39=STYLED_ITEM('',(#124),#125);
#40=STYLED_ITEM('',(#126),#127);
#41=STYLED_ITEM('',(#128),#129);
#42=STYLED_ITEM('',(#130),#131);
#43=STYLED_ITEM('',(#132),#133);
#44=STYLED_ITEM('',(#134),#135);
#45=STYLED_ITEM('',(#136),#137);
#46=STYLED_ITEM('',(#138),#139);
#47=STYLED_ITEM('',(#140),#141);
#48=STYLED_ITEM('',(#142),#143);
#49=STYLED_ITEM('',(#144),#145);
#50=STYLED_ITEM('',(#146),#147);
#51=STYLED_ITEM('',(#148),#149);
#52=STYLED_ITEM('',(#150),#151);
#53=APPLICATION_CONTEXT(' ');
#54=PRODUCT_CATEGORY('part','NONE');
#55=PRODUCT_RELATED_PRODUCT_CATEGORY('detail',' ',(#152));
#56=PRODUCT_DEFINITION_SHAPE('NONE','NONE',#153);
#57=ADVANCED_BREP_SHAPE_REPRESENTATION('1',(#154,#155),#6);
#60=UNCERTAINTY_MEASURE_WITH_UNIT(LENGTH_MEASURE(1.0E-006),#62,'','');
#62= (CONVERSION_BASED_UNIT('MILLIMETRE',#158)LENGTH_UNIT()NAMED_UNIT(#161));
#63= (NAMED_UNIT(#163)PLANE_ANGLE_UNIT()SI_UNIT($,.RADIAN.));
#64= (NAMED_UNIT(#163)SOLID_ANGLE_UNIT()SI_UNIT($,.STERADIAN.));
#66=PRESENTATION_STYLE_ASSIGNMENT((#169));
#67=VERTEX_POINT('',#170);
#68=PRESENTATION_STYLE_ASSIGNMENT((#171));
#69=VERTEX_POINT('',#172);
#70=PRESENTATION_STYLE_ASSIGNMENT((#173));
#71=EDGE_CURVE('',#99,#115,#174,.T.);
#72=PRESENTATION_STYLE_ASSIGNMENT((#175));
#73=EDGE_CURVE('',#79,#141,#176,.T.);
#74=PRESENTATION_STYLE_ASSIGNMENT((#177));
#75=EDGE_CURVE('',#115,#99,#178,.T.);
#76=PRESENTATION_STYLE_ASSIGNMENT((#179));
#77=EDGE_CURVE('',#69,#145,#180,.T.);
#78=PRESENTATION_STYLE_ASSIGNMENT((#181));
#79=VERTEX_POINT('',#182);
#80=PRESENTATION_STYLE_ASSIGNMENT((#183));
#81=EDGE_CURVE('',#141,#79,#184,.T.);
#82=PRESENTATION_STYLE_ASSIGNMENT((#185));
#83=EDGE_CURVE('',#133,#67,#186,.T.);
#84=PRESENTATION_STYLE_ASSIGNMENT((#187));
#85=ADVANCED_FACE('',(#188,#189),#190,.T.);
#86=PRESENTATION_STYLE_ASSIGNMENT((#191));
#87=ADVANCED_FACE('',(#192),#193,.T.);
#88=PRESENTATION_STYLE_ASSIGNMENT((#194));
#89=ADVANCED_FACE('',(#195),#196,.T.);
#90=PRESENTATION_STYLE_ASSIGNMENT((#197));
#91=ADVANCED_FACE('',(#198),#199,.T.);
#92=PRESENTATION_STYLE_ASSIGNMENT((#200));
#93=EDGE_CURVE('',#141,#113,#201,.T.);
#94=PRESENTATION_STYLE_ASSIGNMENT((#202));
#95=VERTEX_POINT('',#203);
#96=PRESENTATION_STYLE_ASSIGNMENT((#204));
#97=EDGE_CURVE('',#115,#141,#205,.T.);
#98=PRESENTATION_STYLE_ASSIGNMENT((#206));
#99=VERTEX_POINT('',#207);
#100=PRESENTATION_STYLE_ASSIGNMENT((#208));
#101=EDGE_CURVE('',#127,#135,#209,.T.);
#102=PRESENTATION_STYLE_ASSIGNMENT((#210));
#103=EDGE_CURVE('',#67,#133,#211,.T.);
#104=PRESENTATION_STYLE_ASSIGNMENT((#212));
#105=EDGE_CURVE('',#79,#99,#213,.T.);
#106=PRESENTATION_STYLE_ASSIGNMENT((#214));
#107=ADVANCED_FACE('',(#215),#216,.T.);
#108=PRESENTATION_STYLE_ASSIGNMENT((#217));
#109=EDGE_CURVE('',#133,#127,#218,.T.);
#110=PRESENTATION_STYLE_ASSIGNMENT((#219));
#111=EDGE_CURVE('',#135,#127,#220,.T.);
#112=PRESENTATION_STYLE_ASSIGNMENT((#221));
#113=VERTEX_POINT('',#222);
#114=PRESENTATION_STYLE_ASSIGNMENT((#223));
#115=VERTEX_POINT('',#224);
#116=PRESENTATION_STYLE_ASSIGNMENT((#225));
#117=ADVANCED_FACE('',(#226),#227,.T.);
#118=PRESENTATION_STYLE_ASSIGNMENT((#228));
#119=ADVANCED_FACE('',(#229),#230,.T.);
#120=PRESENTATION_STYLE_ASSIGNMENT((#231));
#121=ADVANCED_FACE('',(#232),#233,.T.);
#122=PRESENTATION_STYLE_ASSIGNMENT((#234));
#123=EDGE_CURVE('',#67,#145,#235,.T.);
#124=PRESENTATION_STYLE_ASSIGNMENT((#236));
#125=ADVANCED_FACE('',(#237),#238,.T.);
#126=PRESENTATION_STYLE_ASSIGNMENT((#239));
#127=VERTEX_POINT('',#240);
#128=PRESENTATION_STYLE_ASSIGNMENT((#241));
#129=EDGE_CURVE('',#135,#67,#242,.T.);
#130=PRESENTATION_STYLE_ASSIGNMENT((#243));
#131=EDGE_CURVE('',#113,#95,#244,.T.);
#132=PRESENTATION_STYLE_ASSIGNMENT((#245));
#133=VERTEX_POINT('',#246);
#134=PRESENTATION_STYLE_ASSIGNMENT((#247));
#135=VERTEX_POINT('',#248);
#136=PRESENTATION_STYLE_ASSIGNMENT((#249));
#137=EDGE_CURVE('',#95,#113,#250,.T.);
#138=PRESENTATION_STYLE_ASSIGNMENT((#251));
#139=ADVANCED_FACE('',(#252),#253,.T.);
#140=PRESENTATION_STYLE_ASSIGNMENT((#254));
#141=VERTEX_POINT('',#255);
#142=PRESENTATION_STYLE_ASSIGNMENT((#256));
#143=EDGE_CURVE('',#95,#79,#257,.T.);
#144=PRESENTATION_STYLE_ASSIGNMENT((#258));
#145=VERTEX_POINT('',#259);
#146=PRESENTATION_STYLE_ASSIGNMENT((#260));
#147=EDGE_CURVE('',#145,#69,#261,.T.);
#148=PRESENTATION_STYLE_ASSIGNMENT((#262));
#149=ADVANCED_FACE('',(#263),#264,.T.);
#150=PRESENTATION_STYLE_ASSIGNMENT((#265));
#151=EDGE_CURVE('',#69,#133,#266,.T.);
#152=PRODUCT('1','1','PART-1-DESC',(#267));
#153=PRODUCT_DEFINITION('NONE','NONE',#268,#2);
#154=MANIFOLD_SOLID_BREP('1',#269);
#155=AXIS2_PLACEMENT_3D('',#270,#271,#272);
#158=LENGTH_MEASURE_WITH_UNIT(LENGTH_MEASURE(1.0),#273);
#161=DIMENSIONAL_EXPONENTS(1.0,0.0,0.0,0.0,0.0,0.0,0.0);
#163=DIMENSIONAL_EXPONENTS(0.0,0.0,0.0,0.0,0.0,0.0,0.0);
#169=POINT_STYLE(' ',#274,POSITIVE_LENGTH_MEASURE(1.0E-006),#275);
#170=CARTESIAN_POINT('',(15.0,4.40858287376056E-015,72.0));
#171=POINT_STYLE(' ',#276,POSITIVE_LENGTH_MEASURE(1.0E-006),#277);
#172=CARTESIAN_POINT('',(-15.0,-1.83690953073357E-015,1.1247455413666E-031));
#173=CURVE_STYLE('',#278,POSITIVE_LENGTH_MEASURE(1.0E-006),#279);
#174=CIRCLE('',#280,10.0);
#175=CURVE_STYLE('',#281,POSITIVE_LENGTH_MEASURE(1.0E-006),#282);
#176=CIRCLE('',#283,10.0);
#177=CURVE_STYLE('',#284,POSITIVE_LENGTH_MEASURE(1.0E-006),#285);
#178=CIRCLE('',#286,10.0);
#179=CURVE_STYLE('',#287,POSITIVE_LENGTH_MEASURE(1.0E-006),#288);
#180=CIRCLE('',#289,15.0);
#181=POINT_STYLE(' ',#290,POSITIVE_LENGTH_MEASURE(1.0E-006),#291);
#182=CARTESIAN_POINT('',(-10.0,-2.14306111918916E-015,-15.0));
#183=CURVE_STYLE('',#292,POSITIVE_LENGTH_MEASURE(1.0E-006),#293);
#184=CIRCLE('',#294,10.0);
#185=CURVE_STYLE('',#295,POSITIVE_LENGTH_MEASURE(1.0E-006),#296);
#186=CIRCLE('',#297,15.0);
#187=SURFACE_STYLE_USAGE(.BOTH.,#298);
#188=FACE_BOUND('',#299,.T.);
#189=FACE_OUTER_BOUND('',#300,.T.);
#190=PLANE('',#301);
#191=SURFACE_STYLE_USAGE(.BOTH.,#302);
#192=FACE_OUTER_BOUND('',#303,.T.);
#193=CYLINDRICAL_SURFACE('',#304,15.0);
#194=SURFACE_STYLE_USAGE(.BOTH.,#305);
#195=FACE_OUTER_BOUND('',#306,.T.);
#196=CYLINDRICAL_SURFACE('',#307,10.0);
#197=SURFACE_STYLE_USAGE(.BOTH.,#308);
#198=FACE_OUTER_BOUND('',#309,.T.);
#199=CONICAL_SURFACE('',#310,9.5,0.197395559849881);
#200=CURVE_STYLE('',#311,POSITIVE_LENGTH_MEASURE(1.0E-006),#312);
#201=LINE('',#313,#314);
#202=POINT_STYLE(' ',#315,POSITIVE_LENGTH_MEASURE(1.0E-006),#316);
#203=CARTESIAN_POINT('',(-9.0,-2.32675207226252E-015,-20.0));
#204=CURVE_STYLE('',#317,POSITIVE_LENGTH_MEASURE(1.0E-006),#318);
#205=LINE('',#319,#320);
#206=POINT_STYLE(' ',#321,POSITIVE_LENGTH_MEASURE(1.0E-006),#322);
#207=CARTESIAN_POINT('',(-10.0,-1.22460635382238E-015,7.49830360911069E-032));
#208=CURVE_STYLE('',#323,POSITIVE_LENGTH_MEASURE(1.0E-006),#324);
#209=CIRCLE('',#325,7.0);
#210=CURVE_STYLE('',#326,POSITIVE_LENGTH_MEASURE(1.0E-006),#327);
#211=CIRCLE('',#328,15.0);
#212=CURVE_STYLE('',#329,POSITIVE_LENGTH_MEASURE(1.0E-006),#330);
#213=LINE('',#331,#332);
#214=SURFACE_STYLE_USAGE(.BOTH.,#333);
#215=FACE_OUTER_BOUND('',#334,.T.);
#216=CONICAL_SURFACE('',#335,11.0,0.785398163397448);
#217=CURVE_STYLE('',#336,POSITIVE_LENGTH_MEASURE(1.0E-006),#337);
#218=LINE('',#338,#339);
#219=CURVE_STYLE('',#340,POSITIVE_LENGTH_MEASURE(1.0E-006),#341);
#220=CIRCLE('',#342,7.0);
#221=POINT_STYLE(' ',#343,POSITIVE_LENGTH_MEASURE(1.0E-006),#344);
#222=CARTESIAN_POINT('',(9.0,-1.22460635382238E-015,-20.0));
#223=POINT_STYLE(' ',#345,POSITIVE_LENGTH_MEASURE(1.0E-006),#346);
#224=CARTESIAN_POINT('',(10.0,0.0,0.0));
#225=SURFACE_STYLE_USAGE(.BOTH.,#347);
#226=FACE_OUTER_BOUND('',#348,.T.);
#227=CYLINDRICAL_SURFACE('',#349,15.0);
#228=SURFACE_STYLE_USAGE(.BOTH.,#350);
#229=FACE_OUTER_BOUND('',#351,.T.);
#230=CONICAL_SURFACE('',#352,11.0,0.785398163397448);
#231=SURFACE_STYLE_USAGE(.BOTH.,#353);
#232=FACE_OUTER_BOUND('',#354,.T.);
#233=CYLINDRICAL_SURFACE('',#355,10.0);
#234=CURVE_STYLE('',#356,POSITIVE_LENGTH_MEASURE(1.0E-006),#357);
#235=LINE('',#358,#359);
#236=SURFACE_STYLE_USAGE(.BOTH.,#360);
#237=FACE_OUTER_BOUND('',#361,.T.);
#238=PLANE('',#362);
#239=POINT_STYLE(' ',#363,POSITIVE_LENGTH_MEASURE(1.0E-006),#364);
#240=CARTESIAN_POINT('',(-7.0,4.04120096761385E-015,80.0));
#241=CURVE_STYLE('',#365,POSITIVE_LENGTH_MEASURE(1.0E-006),#366);
#242=LINE('',#367,#368);
#243=CURVE_STYLE('',#369,POSITIVE_LENGTH_MEASURE(1.0E-006),#370);
#244=CIRCLE('',#371,9.0);
#245=POINT_STYLE(' ',#372,POSITIVE_LENGTH_MEASURE(1.0E-006),#373);
#246=CARTESIAN_POINT('',(-15.0,2.57167334302699E-015,72.0));
#247=POINT_STYLE(' ',#374,POSITIVE_LENGTH_MEASURE(1.0E-006),#375);
#248=CARTESIAN_POINT('',(7.0,4.89842541528951E-015,80.0));
#249=CURVE_STYLE('',#376,POSITIVE_LENGTH_MEASURE(1.0E-006),#377);
#250=CIRCLE('',#378,9.0);
#251=SURFACE_STYLE_USAGE(.BOTH.,#379);
#252=FACE_OUTER_BOUND('',#380,.T.);
#253=PLANE('',#381);
#254=POINT_STYLE(' ',#382,POSITIVE_LENGTH_MEASURE(1.0E-006),#383);
#255=CARTESIAN_POINT('',(10.0,-9.18454765366783E-016,-15.0));
#256=CURVE_STYLE('',#384,POSITIVE_LENGTH_MEASURE(1.0E-006),#385);
#257=LINE('',#386,#387);
#258=POINT_STYLE(' ',#388,POSITIVE_LENGTH_MEASURE(1.0E-006),#389);
#259=CARTESIAN_POINT('',(15.0,0.0,0.0));
#260=CURVE_STYLE('',#390,POSITIVE_LENGTH_MEASURE(1.0E-006),#391);
#261=CIRCLE('',#392,15.0);
#262=SURFACE_STYLE_USAGE(.BOTH.,#393);
#263=FACE_OUTER_BOUND('',#394,.T.);
#264=CONICAL_SURFACE('',#395,9.5,0.197395559849881);
#265=CURVE_STYLE('',#396,POSITIVE_LENGTH_MEASURE(1.0E-006),#397);
#266=LINE('',#398,#399);
#267=PRODUCT_CONTEXT('',#53,'mechanical');
#268=PRODUCT_DEFINITION_FORMATION_WITH_SPECIFIED_SOURCE(' ','NONE',#152,.NOT_KNOWN.);
#269=CLOSED_SHELL('',(#91,#89,#117,#107,#139,#119,#87,#85,#121,#149,#125));
#270=CARTESIAN_POINT('',(0.0,0.0,0.0));
#271=DIRECTION('',(0.0,0.0,1.0));
#272=DIRECTION('',(1.0,0.0,0.0));
#273= (NAMED_UNIT(#161)LENGTH_UNIT()SI_UNIT(.MILLI.,.METRE.));
#274=PRE_DEFINED_MARKER('');
#275=COLOUR_RGB('',0.509803950786591,0.509803950786591,0.588235318660736);
#276=PRE_DEFINED_MARKER('');
#277=COLOUR_RGB('',0.509803950786591,0.509803950786591,0.588235318660736);
#278=DRAUGHTING_PRE_DEFINED_CURVE_FONT('continuous');
#279=COLOUR_RGB('',0.509803950786591,0.509803950786591,0.588235318660736);
#280=AXIS2_PLACEMENT_3D('',#401,#402,#403);
#281=DRAUGHTING_PRE_DEFINED_CURVE_FONT('continuous');
#282=COLOUR_RGB('',0.509803950786591,0.509803950786591,0.588235318660736);
#283=AXIS2_PLACEMENT_3D('',#404,#405,#406);
#284=DRAUGHTING_PRE_DEFINED_CURVE_FONT('continuous');
#285=COLOUR_RGB('',0.509803950786591,0.509803950786591,0.588235318660736);
#286=AXIS2_PLACEMENT_3D('',#407,#408,#409);
#287=DRAUGHTING_PRE_DEFINED_CURVE_FONT('continuous');
#288=COLOUR_RGB('',0.509803950786591,0.509803950786591,0.588235318660736);
#289=AXIS2_PLACEMENT_3D('',#410,#411,#412);
#290=PRE_DEFINED_MARKER('');
#291=COLOUR_RGB('',0.509803950786591,0.509803950786591,0.588235318660736);
#292=DRAUGHTING_PRE_DEFINED_CURVE_FONT('continuous');
#293=COLOUR_RGB('',0.509803950786591,0.509803950786591,0.588235318660736);
#294=AXIS2_PLACEMENT_3D('',#413,#414,#415);
#295=DRAUGHTING_PRE_DEFINED_CURVE_FONT('continuous');
#296=COLOUR_RGB('',0.509803950786591,0.509803950786591,0.588235318660736);
#297=AXIS2_PLACEMENT_3D('',#416,#417,#418);
#298=SURFACE_SIDE_STYLE('',(#419));
#299=EDGE_LOOP('',(#420,#421));
#300=EDGE_LOOP('',(#422,#423));
#301=AXIS2_PLACEMENT_3D('',#424,#425,#426);
#302=SURFACE_SIDE_STYLE('',(#427));
#303=EDGE_LOOP('',(#428,#429,#430,#431));
#304=AXIS2_PLACEMENT_3D('',#432,#433,#434);
#305=SURFACE_SIDE_STYLE('',(#435));
#306=EDGE_LOOP('',(#436,#437,#438,#439));
#307=AXIS2_PLACEMENT_3D('',#440,#441,#442);
#308=SURFACE_SIDE_STYLE('',(#443));
#309=EDGE_LOOP('',(#444,#445,#446,#447));
#310=AXIS2_PLACEMENT_3D('',#448,#449,#450);
#311=DRAUGHTING_PRE_DEFINED_CURVE_FONT('continuous');
#312=COLOUR_RGB('',0.509803950786591,0.509803950786591,0.588235318660736);
#313=CARTESIAN_POINT('',(9.5,9.18454765366783E-017,-17.5));
#314=VECTOR('',#451,1.0);
#315=PRE_DEFINED_MARKER('');
#316=COLOUR_RGB('',0.509803950786591,0.509803950786591,0.588235318660736);
#317=DRAUGHTING_PRE_DEFINED_CURVE_FONT('continuous');
#318=COLOUR_RGB('',0.509803950786591,0.509803950786591,0.588235318660736);
#319=CARTESIAN_POINT('',(10.0,7.65378971138986E-016,-7.5));
#320=VECTOR('',#452,1.0);
#321=PRE_DEFINED_MARKER('');
#322=COLOUR_RGB('',0.509803950786591,0.509803950786591,0.588235318660736);
#323=DRAUGHTING_PRE_DEFINED_CURVE_FONT('continuous');
#324=COLOUR_RGB('',0.509803950786591,0.509803950786591,0.588235318660736);
#325=AXIS2_PLACEMENT_3D('',#453,#454,#455);
#326=DRAUGHTING_PRE_DEFINED_CURVE_FONT('continuous');
#327=COLOUR_RGB('',0.509803950786591,0.509803950786591,0.588235318660736);
#328=AXIS2_PLACEMENT_3D('',#456,#457,#458);
#329=DRAUGHTING_PRE_DEFINED_CURVE_FONT('continuous');
#330=COLOUR_RGB('',0.509803950786591,0.509803950786591,0.588235318660736);
#331=CARTESIAN_POINT('',(-10.0,-1.68383373650577E-015,-7.5));
#332=VECTOR('',#459,1.0);
#333=SURFACE_SIDE_STYLE('',(#460));
#334=EDGE_LOOP('',(#461,#462,#463,#464));
#335=AXIS2_PLACEMENT_3D('',#465,#466,#467);
#336=DRAUGHTING_PRE_DEFINED_CURVE_FONT('continuous');
#337=COLOUR_RGB('',0.509803950786591,0.509803950786591,0.588235318660736);
#338=CARTESIAN_POINT('',(-11.0,3.30643715532042E-015,76.0));
#339=VECTOR('',#468,1.0);
#340=DRAUGHTING_PRE_DEFINED_CURVE_FONT('continuous');
#341=COLOUR_RGB('',0.509803950786591,0.509803950786591,0.588235318660736);
#342=AXIS2_PLACEMENT_3D('',#469,#470,#471);
#343=PRE_DEFINED_MARKER('');
#344=COLOUR_RGB('',0.509803950786591,0.509803950786591,0.588235318660736);
#345=PRE_DEFINED_MARKER('');
#346=COLOUR_RGB('',0.509803950786591,0.509803950786591,0.588235318660736);
#347=SURFACE_SIDE_STYLE('',(#472));
#348=EDGE_LOOP('',(#473,#474,#475,#476));
#349=AXIS2_PLACEMENT_3D('',#477,#478,#479);
#350=SURFACE_SIDE_STYLE('',(#480));
#351=EDGE_LOOP('',(#481,#482,#483,#484));
#352=AXIS2_PLACEMENT_3D('',#485,#486,#487);
#353=SURFACE_SIDE_STYLE('',(#488));
#354=EDGE_LOOP('',(#489,#490,#491,#492));
#355=AXIS2_PLACEMENT_3D('',#493,#494,#495);
#356=DRAUGHTING_PRE_DEFINED_CURVE_FONT('continuous');
#357=COLOUR_RGB('',0.509803950786591,0.509803950786591,0.588235318660736);
#358=CARTESIAN_POINT('',(15.0,4.04120096761385E-015,36.0));
#359=VECTOR('',#496,1.0);
#360=SURFACE_SIDE_STYLE('',(#497));
#361=EDGE_LOOP('',(#498,#499));
#362=AXIS2_PLACEMENT_3D('',#500,#501,#502);
#363=PRE_DEFINED_MARKER('');
#364=COLOUR_RGB('',0.509803950786591,0.509803950786591,0.588235318660736);
#365=DRAUGHTING_PRE_DEFINED_CURVE_FONT('continuous');
#366=COLOUR_RGB('',0.509803950786591,0.509803950786591,0.588235318660736);
#367=CARTESIAN_POINT('',(11.0,6.00057113372965E-015,76.0));
#368=VECTOR('',#503,1.0);
#369=DRAUGHTING_PRE_DEFINED_CURVE_FONT('continuous');
#370=COLOUR_RGB('',0.509803950786591,0.509803950786591,0.588235318660736);
#371=AXIS2_PLACEMENT_3D('',#504,#505,#506);
#372=PRE_DEFINED_MARKER('');
#373=COLOUR_RGB('',0.509803950786591,0.509803950786591,0.588235318660736);
#374=PRE_DEFINED_MARKER('');
#375=COLOUR_RGB('',0.509803950786591,0.509803950786591,0.588235318660736);
#376=DRAUGHTING_PRE_DEFINED_CURVE_FONT('continuous');
#377=COLOUR_RGB('',0.509803950786591,0.509803950786591,0.588235318660736);
#378=AXIS2_PLACEMENT_3D('',#507,#508,#509);
#379=SURFACE_SIDE_STYLE('',(#510));
#380=EDGE_LOOP('',(#511,#512));
#381=AXIS2_PLACEMENT_3D('',#513,#514,#515);
#382=PRE_DEFINED_MARKER('');
#383=COLOUR_RGB('',0.509803950786591,0.509803950786591,0.588235318660736);
#384=DRAUGHTING_PRE_DEFINED_CURVE_FONT('continuous');
#385=COLOUR_RGB('',0.509803950786591,0.509803950786591,0.588235318660736);
#386=CARTESIAN_POINT('',(-9.5,-2.23490659572584E-015,-17.5));
#387=VECTOR('',#516,1.0);
#388=PRE_DEFINED_MARKER('');
#389=COLOUR_RGB('',0.509803950786591,0.509803950786591,0.588235318660736);
#390=DRAUGHTING_PRE_DEFINED_CURVE_FONT('continuous');
#391=COLOUR_RGB('',0.509803950786591,0.509803950786591,0.588235318660736);
#392=AXIS2_PLACEMENT_3D('',#517,#518,#519);
#393=SURFACE_SIDE_STYLE('',(#520));
#394=EDGE_LOOP('',(#521,#522,#523,#524));
#395=AXIS2_PLACEMENT_3D('',#525,#526,#527);
#396=DRAUGHTING_PRE_DEFINED_CURVE_FONT('continuous');
#397=COLOUR_RGB('',0.509803950786591,0.509803950786591,0.588235318660736);
#398=CARTESIAN_POINT('',(-15.0,3.67381906146713E-016,36.0));
#399=VECTOR('',#528,1.0);
#401=CARTESIAN_POINT('',(0.0,0.0,0.0));
#402=DIRECTION('',(0.0,-6.12303176911189E-017,-1.0));
#403=DIRECTION('',(1.0,0.0,0.0));
#404=CARTESIAN_POINT('',(0.0,-9.18454765366783E-016,-15.0));
#405=DIRECTION('',(0.0,-6.12303176911189E-017,-1.0));
#406=DIRECTION('',(1.0,0.0,0.0));
#407=CARTESIAN_POINT('',(0.0,0.0,0.0));
#408=DIRECTION('',(0.0,-6.12303176911189E-017,-1.0));
#409=DIRECTION('',(1.0,0.0,0.0));
#410=CARTESIAN_POINT('',(0.0,0.0,0.0));
#411=DIRECTION('',(0.0,-6.12303176911189E-017,-1.0));
#412=DIRECTION('',(1.0,0.0,0.0));
#413=CARTESIAN_POINT('',(0.0,-9.18454765366783E-016,-15.0));
#414=DIRECTION('',(0.0,-6.12303176911189E-017,-1.0));
#415=DIRECTION('',(1.0,0.0,0.0));
#416=CARTESIAN_POINT('',(0.0,4.40858287376056E-015,72.0));
#417=DIRECTION('',(0.0,-6.12303176911189E-017,-1.0));
#418=DIRECTION('',(1.0,0.0,0.0));
#419=SURFACE_STYLE_FILL_AREA(#529);
#420=ORIENTED_EDGE('',*,*,#75,.F.);
#421=ORIENTED_EDGE('',*,*,#71,.F.);
#422=ORIENTED_EDGE('',*,*,#147,.T.);
#423=ORIENTED_EDGE('',*,*,#77,.T.);
#424=CARTESIAN_POINT('',(12.5,0.0,0.0));
#425=DIRECTION('',(0.0,-6.12303176911189E-017,-1.0));
#426=DIRECTION('',(1.0,0.0,0.0));
#427=SURFACE_STYLE_FILL_AREA(#530);
#428=ORIENTED_EDGE('',*,*,#123,.T.);
#429=ORIENTED_EDGE('',*,*,#77,.F.);
#430=ORIENTED_EDGE('',*,*,#151,.T.);
#431=ORIENTED_EDGE('',*,*,#83,.T.);
#432=CARTESIAN_POINT('',(0.0,2.20429143688028E-015,36.0));
#433=DIRECTION('',(-0.0,6.12303176911189E-017,1.0));
#434=DIRECTION('',(1.0,0.0,0.0));
#435=SURFACE_STYLE_FILL_AREA(#531);
#436=ORIENTED_EDGE('',*,*,#97,.F.);
#437=ORIENTED_EDGE('',*,*,#75,.T.);
#438=ORIENTED_EDGE('',*,*,#105,.F.);
#439=ORIENTED_EDGE('',*,*,#81,.F.);
#440=CARTESIAN_POINT('',(0.0,-4.59227382683391E-016,-7.5));
#441=DIRECTION('',(-0.0,6.12303176911189E-017,1.0));
#442=DIRECTION('',(1.0,0.0,0.0));
#443=SURFACE_STYLE_FILL_AREA(#532);
#444=ORIENTED_EDGE('',*,*,#93,.F.);
#445=ORIENTED_EDGE('',*,*,#81,.T.);
#446=ORIENTED_EDGE('',*,*,#143,.F.);
#447=ORIENTED_EDGE('',*,*,#131,.F.);
#448=CARTESIAN_POINT('',(0.0,-1.07153055959458E-015,-17.5));
#449=DIRECTION('',(-0.0,6.12303176911189E-017,1.0));
#450=DIRECTION('',(1.0,0.0,0.0));
#451=DIRECTION('',(-0.196116135138184,-8.40577728120578E-017,-0.98058067569092));
#452=DIRECTION('',(0.0,-6.12303176911189E-017,-1.0));
#453=CARTESIAN_POINT('',(0.0,4.89842541528951E-015,80.0));
#454=DIRECTION('',(0.0,-6.12303176911189E-017,-1.0));
#455=DIRECTION('',(1.0,0.0,0.0));
#456=CARTESIAN_POINT('',(0.0,4.40858287376056E-015,72.0));
#457=DIRECTION('',(0.0,-6.12303176911189E-017,-1.0));
#458=DIRECTION('',(1.0,0.0,0.0));
#459=DIRECTION('',(-0.0,6.12303176911189E-017,1.0));
#460=SURFACE_STYLE_FILL_AREA(#533);
#461=ORIENTED_EDGE('',*,*,#129,.F.);
#462=ORIENTED_EDGE('',*,*,#111,.T.);
#463=ORIENTED_EDGE('',*,*,#109,.F.);
#464=ORIENTED_EDGE('',*,*,#103,.F.);
#465=CARTESIAN_POINT('',(0.0,4.65350414452503E-015,76.0));
#466=DIRECTION('',(0.0,-6.12303176911189E-017,-1.0));
#467=DIRECTION('',(1.0,0.0,0.0));
#468=DIRECTION('',(0.707106781186548,1.2988911856079E-016,0.707106781186548));
#469=CARTESIAN_POINT('',(0.0,4.89842541528951E-015,80.0));
#470=DIRECTION('',(0.0,-6.12303176911189E-017,-1.0));
#471=DIRECTION('',(1.0,0.0,0.0));
#472=SURFACE_STYLE_FILL_AREA(#534);
#473=ORIENTED_EDGE('',*,*,#123,.F.);
#474=ORIENTED_EDGE('',*,*,#103,.T.);
#475=ORIENTED_EDGE('',*,*,#151,.F.);
#476=ORIENTED_EDGE('',*,*,#147,.F.);
#477=CARTESIAN_POINT('',(0.0,2.20429143688028E-015,36.0));
#478=DIRECTION('',(-0.0,6.12303176911189E-017,1.0));
#479=DIRECTION('',(1.0,0.0,0.0));
#480=SURFACE_STYLE_FILL_AREA(#535);
#481=ORIENTED_EDGE('',*,*,#129,.T.);
#482=ORIENTED_EDGE('',*,*,#83,.F.);
#483=ORIENTED_EDGE('',*,*,#109,.T.);
#484=ORIENTED_EDGE('',*,*,#101,.T.);
#485=CARTESIAN_POINT('',(0.0,4.65350414452503E-015,76.0));
#486=DIRECTION('',(0.0,-6.12303176911189E-017,-1.0));
#487=DIRECTION('',(1.0,0.0,0.0));
#488=SURFACE_STYLE_FILL_AREA(#536);
#489=ORIENTED_EDGE('',*,*,#97,.T.);
#490=ORIENTED_EDGE('',*,*,#73,.F.);
#491=ORIENTED_EDGE('',*,*,#105,.T.);
#492=ORIENTED_EDGE('',*,*,#71,.T.);
#493=CARTESIAN_POINT('',(0.0,-4.59227382683391E-016,-7.5));
#494=DIRECTION('',(-0.0,6.12303176911189E-017,1.0));
#495=DIRECTION('',(1.0,0.0,0.0));
#496=DIRECTION('',(0.0,-6.12303176911189E-017,-1.0));
#497=SURFACE_STYLE_FILL_AREA(#537);
#498=ORIENTED_EDGE('',*,*,#131,.T.);
#499=ORIENTED_EDGE('',*,*,#137,.T.);
#500=CARTESIAN_POINT('',(4.5,-1.22460635382238E-015,-20.0));
#501=DIRECTION('',(0.0,-6.12303176911189E-017,-1.0));
#502=DIRECTION('',(1.0,0.0,0.0));
#503=DIRECTION('',(0.707106781186548,4.32963728535968E-017,-0.707106781186548));
#504=CARTESIAN_POINT('',(0.0,-1.22460635382238E-015,-20.0));
#505=DIRECTION('',(0.0,-6.12303176911189E-017,-1.0));
#506=DIRECTION('',(1.0,0.0,0.0));
#507=CARTESIAN_POINT('',(0.0,-1.22460635382238E-015,-20.0));
#508=DIRECTION('',(0.0,-6.12303176911189E-017,-1.0));
#509=DIRECTION('',(1.0,0.0,0.0));
#510=SURFACE_STYLE_FILL_AREA(#538);
#511=ORIENTED_EDGE('',*,*,#111,.F.);
#512=ORIENTED_EDGE('',*,*,#101,.F.);
#513=CARTESIAN_POINT('',(3.5,4.89842541528951E-015,80.0));
#514=DIRECTION('',(0.0,6.12303176911189E-017,1.0));
#515=DIRECTION('',(-1.0,0.0,0.0));
#516=DIRECTION('',(-0.196116135138184,3.60247597765962E-017,0.98058067569092));
#517=CARTESIAN_POINT('',(0.0,0.0,0.0));
#518=DIRECTION('',(0.0,-6.12303176911189E-017,-1.0));
#519=DIRECTION('',(1.0,0.0,0.0));
#520=SURFACE_STYLE_FILL_AREA(#539);
#521=ORIENTED_EDGE('',*,*,#93,.T.);
#522=ORIENTED_EDGE('',*,*,#137,.F.);
#523=ORIENTED_EDGE('',*,*,#143,.T.);
#524=ORIENTED_EDGE('',*,*,#73,.T.);
#525=CARTESIAN_POINT('',(0.0,-1.07153055959458E-015,-17.5));
#526=DIRECTION('',(-0.0,6.12303176911189E-017,1.0));
#527=DIRECTION('',(1.0,0.0,0.0));
#528=DIRECTION('',(-0.0,6.12303176911189E-017,1.0));
#529=FILL_AREA_STYLE('',(#540));
#530=FILL_AREA_STYLE('',(#541));
#531=FILL_AREA_STYLE('',(#542));
#532=FILL_AREA_STYLE('',(#543));
#533=FILL_AREA_STYLE('',(#544));
#534=FILL_AREA_STYLE('',(#545));
#535=FILL_AREA_STYLE('',(#546));
#536=FILL_AREA_STYLE('',(#547));
#537=FILL_AREA_STYLE('',(#548));
#538=FILL_AREA_STYLE('',(#549));
#539=FILL_AREA_STYLE('',(#550));
#540=FILL_AREA_STYLE_COLOUR('',#551);
#541=FILL_AREA_STYLE_COLOUR('',#552);
#542=FILL_AREA_STYLE_COLOUR('',#553);
#543=FILL_AREA_STYLE_COLOUR('',#554);
#544=FILL_AREA_STYLE_COLOUR('',#555);
#545=FILL_AREA_STYLE_COLOUR('',#556);
#546=FILL_AREA_STYLE_COLOUR('',#557);
#547=FILL_AREA_STYLE_COLOUR('',#558);
#548=FILL_AREA_STYLE_COLOUR('',#559);
#549=FILL_AREA_STYLE_COLOUR('',#560);
#550=FILL_AREA_STYLE_COLOUR('',#561);
#551=COLOUR_RGB('',0.509803950786591,0.509803950786591,0.588235318660736);
#552=COLOUR_RGB('',0.509803950786591,0.509803950786591,0.588235318660736);
#553=COLOUR_RGB('',0.509803950786591,0.509803950786591,0.588235318660736);
#554=COLOUR_RGB('',0.509803950786591,0.509803950786591,0.588235318660736);
#555=COLOUR_RGB('',0.509803950786591,0.509803950786591,0.588235318660736);
#556=COLOUR_RGB('',0.509803950786591,0.509803950786591,0.588235318660736);
#557=COLOUR_RGB('',0.509803950786591,0.509803950786591,0.588235318660736);
#558=COLOUR_RGB('',0.509803950786591,0.509803950786591,0.588235318660736);
#559=COLOUR_RGB('',0.509803950786591,0.509803950786591,0.588235318660736);
#560=COLOUR_RGB('',0.509803950786591,0.509803950786591,0.588235318660736);
#561=COLOUR_RGB('',0.509803950786591,0.509803950786591,0.588235318660736);
ENDSEC;
END-ISO-10303-21;
