ISO-10303-21;
HEADER;
FILE_DESCRIPTION(('STEP AP214'),'1');
FILE_NAME(' ','  ',('TraceParts'),('TraceParts S.A.'),'XStep 1.0',' ',' ');
FILE_SCHEMA(('automotive_design'));
ENDSEC;
DATA;
#1=MECHANICAL_DESIGN_GEOMETRIC_PRESENTATION_REPRESENTATION(' ',(#10,#11,#12,#13,#14,#15,#16,#17,#18,#19,#20,#21,#22,#23,#24,#25,#26,#27,#28,#29,#30,#31,#32,#33,#34,#35,#36,#37,#38,#39,#40,#41,#42,#43,#44,#45,#46,#47,#48,#49,#50,#51,#52),#6);
#2=PRODUCT_DEFINITION_CONTEXT('',#53,'design');
#3=APPLICATION_PROTOCOL_DEFINITION('INTERNATIONAL STANDARD','automotive_design',1994,#53);
#4=PRODUCT_CATEGORY_RELATIONSHIP('NONE','NONE',#54,#55);
#5=SHAPE_DEFINITION_REPRESENTATION(#56,#57);
#6= (GEOMETRIC_REPRESENTATION_CONTEXT(3)GLOBAL_UNCERTAINTY_ASSIGNED_CONTEXT((#60))GLOBAL_UNIT_ASSIGNED_CONTEXT((#62,#63,#64))REPRESENTATION_CONTEXT('NONE','WORKSPACE'));
#10=STYLED_ITEM('',(#66),#67);
#11=STYLED_ITEM('',(#68),#69);
#12=STYLED_ITEM('',(#70),#71);
#13=STYLED_ITEM('',(#72),#73);
#14=STYLED_ITEM('',(#74),#75);
#15=STYLED_ITEM('',(#76),#77);
#16=STYLED_ITEM('',(#78),#79);
#17=STYLED_ITEM('',(#80),#81);
#18=STYLED_ITEM('',(#82),#83);
#19=STYLED_ITEM('',(#84),#85);
#20=STYLED_ITEM('',(#86),#87);
#21=STYLED_ITEM('',(#88),#89);
#22=STYLED_ITEM('',(#90),#91);
#23=STYLED_ITEM('',(#92),#93);
#24=STYLED_ITEM('',(#94),#95);
#25=STYLED_ITEM('',(#96),#97);
#26=STYLED_ITEM('',(#98),#99);
#27=STYLED_ITEM('',(#100),#101);
#28=STYLED_ITEM('',(#102),#103);
#29=STYLED_ITEM('',(#104),#105);
#30=STYLED_ITEM('',(#106),#107);
#31=STYLED_ITEM('',(#108),#109);
#32=STYLED_ITEM('',(#110),#111);
#33=STYLED_ITEM('',(#112),#113);
#34=STYLED_ITEM('',(#114),#115);
#35=STYLED_ITEM('',(#116),#117);
#36=STYLED_ITEM('',(#118),#119);
#37=STYLED_ITEM('',(#120),#121);
#38=STYLED_ITEM('',(#122),#123);
#39=STYLED_ITEM('',(#124),#125);
#40=STYLED_ITEM('',(#126),#127);
#41=STYLED_ITEM('',(#128),#129);
#42=STYLED_ITEM('',(#130),#131);
#43=STYLED_ITEM('',(#132),#133);
#44=STYLED_ITEM('',(#134),#135);
#45=STYLED_ITEM('',(#136),#137);
#46=STYLED_ITEM('',(#138),#139);
#47=STYLED_ITEM('',(#140),#141);
#48=STYLED_ITEM('',(#142),#143);
#49=STYLED_ITEM('',(#144),#145);
#50=STYLED_ITEM('',(#146),#147);
#51=STYLED_ITEM('',(#148),#149);
#52=STYLED_ITEM('',(#150),#151);
#53=APPLICATION_CONTEXT(' ');
#54=PRODUCT_CATEGORY('part','NONE');
#55=PRODUCT_RELATED_PRODUCT_CATEGORY('detail',' ',(#152));
#56=PRODUCT_DEFINITION_SHAPE('NONE','NONE',#153);
#57=ADVANCED_BREP_SHAPE_REPRESENTATION('1',(#154,#155),#6);
#60=UNCERTAINTY_MEASURE_WITH_UNIT(LENGTH_MEASURE(1.0E-006),#62,'','');
#62= (CONVERSION_BASED_UNIT('MILLIMETRE',#158)LENGTH_UNIT()NAMED_UNIT(#161));
#63= (NAMED_UNIT(#163)PLANE_ANGLE_UNIT()SI_UNIT($,.RADIAN.));
#64= (NAMED_UNIT(#163)SOLID_ANGLE_UNIT()SI_UNIT($,.STERADIAN.));
#66=PRESENTATION_STYLE_ASSIGNMENT((#169));
#67=EDGE_CURVE('',#131,#107,#170,.T.);
#68=PRESENTATION_STYLE_ASSIGNMENT((#171));
#69=ADVANCED_FACE('',(#172),#173,.T.);
#70=PRESENTATION_STYLE_ASSIGNMENT((#174));
#71=VERTEX_POINT('',#175);
#72=PRESENTATION_STYLE_ASSIGNMENT((#176));
#73=EDGE_CURVE('',#81,#89,#177,.T.);
#74=PRESENTATION_STYLE_ASSIGNMENT((#178));
#75=EDGE_CURVE('',#121,#131,#179,.T.);
#76=PRESENTATION_STYLE_ASSIGNMENT((#180));
#77=ADVANCED_FACE('',(#181),#182,.T.);
#78=PRESENTATION_STYLE_ASSIGNMENT((#183));
#79=EDGE_CURVE('',#93,#101,#184,.T.);
#80=PRESENTATION_STYLE_ASSIGNMENT((#185));
#81=VERTEX_POINT('',#186);
#82=PRESENTATION_STYLE_ASSIGNMENT((#187));
#83=EDGE_CURVE('',#81,#113,#188,.T.);
#84=PRESENTATION_STYLE_ASSIGNMENT((#189));
#85=ADVANCED_FACE('',(#190,#191),#192,.T.);
#86=PRESENTATION_STYLE_ASSIGNMENT((#193));
#87=ADVANCED_FACE('',(#194),#195,.T.);
#88=PRESENTATION_STYLE_ASSIGNMENT((#196));
#89=VERTEX_POINT('',#197);
#90=PRESENTATION_STYLE_ASSIGNMENT((#198));
#91=EDGE_CURVE('',#89,#127,#199,.T.);
#92=PRESENTATION_STYLE_ASSIGNMENT((#200));
#93=VERTEX_POINT('',#201);
#94=PRESENTATION_STYLE_ASSIGNMENT((#202));
#95=EDGE_CURVE('',#101,#93,#203,.T.);
#96=PRESENTATION_STYLE_ASSIGNMENT((#204));
#97=EDGE_CURVE('',#109,#117,#205,.T.);
#98=PRESENTATION_STYLE_ASSIGNMENT((#206));
#99=ADVANCED_FACE('',(#207),#208,.T.);
#100=PRESENTATION_STYLE_ASSIGNMENT((#209));
#101=VERTEX_POINT('',#210);
#102=PRESENTATION_STYLE_ASSIGNMENT((#211));
#103=EDGE_CURVE('',#89,#109,#212,.T.);
#104=PRESENTATION_STYLE_ASSIGNMENT((#213));
#105=ADVANCED_FACE('',(#214),#215,.T.);
#106=PRESENTATION_STYLE_ASSIGNMENT((#216));
#107=VERTEX_POINT('',#217);
#108=PRESENTATION_STYLE_ASSIGNMENT((#218));
#109=VERTEX_POINT('',#219);
#110=PRESENTATION_STYLE_ASSIGNMENT((#220));
#111=EDGE_CURVE('',#117,#109,#221,.T.);
#112=PRESENTATION_STYLE_ASSIGNMENT((#222));
#113=VERTEX_POINT('',#223);
#114=PRESENTATION_STYLE_ASSIGNMENT((#224));
#115=EDGE_CURVE('',#127,#113,#225,.T.);
#116=PRESENTATION_STYLE_ASSIGNMENT((#226));
#117=VERTEX_POINT('',#227);
#118=PRESENTATION_STYLE_ASSIGNMENT((#228));
#119=EDGE_CURVE('',#117,#127,#229,.T.);
#120=PRESENTATION_STYLE_ASSIGNMENT((#230));
#121=VERTEX_POINT('',#231);
#122=PRESENTATION_STYLE_ASSIGNMENT((#232));
#123=ADVANCED_FACE('',(#233),#234,.T.);
#124=PRESENTATION_STYLE_ASSIGNMENT((#235));
#125=EDGE_CURVE('',#71,#121,#236,.T.);
#126=PRESENTATION_STYLE_ASSIGNMENT((#237));
#127=VERTEX_POINT('',#238);
#128=PRESENTATION_STYLE_ASSIGNMENT((#239));
#129=ADVANCED_FACE('',(#240),#241,.T.);
#130=PRESENTATION_STYLE_ASSIGNMENT((#242));
#131=VERTEX_POINT('',#243);
#132=PRESENTATION_STYLE_ASSIGNMENT((#244));
#133=EDGE_CURVE('',#127,#89,#245,.T.);
#134=PRESENTATION_STYLE_ASSIGNMENT((#246));
#135=EDGE_CURVE('',#113,#81,#247,.T.);
#136=PRESENTATION_STYLE_ASSIGNMENT((#248));
#137=EDGE_CURVE('',#107,#71,#249,.T.);
#138=PRESENTATION_STYLE_ASSIGNMENT((#250));
#139=EDGE_CURVE('',#101,#71,#251,.T.);
#140=PRESENTATION_STYLE_ASSIGNMENT((#252));
#141=EDGE_CURVE('',#131,#121,#253,.T.);
#142=PRESENTATION_STYLE_ASSIGNMENT((#254));
#143=ADVANCED_FACE('',(#255),#256,.T.);
#144=PRESENTATION_STYLE_ASSIGNMENT((#257));
#145=ADVANCED_FACE('',(#258),#259,.T.);
#146=PRESENTATION_STYLE_ASSIGNMENT((#260));
#147=ADVANCED_FACE('',(#261),#262,.T.);
#148=PRESENTATION_STYLE_ASSIGNMENT((#263));
#149=EDGE_CURVE('',#71,#107,#264,.T.);
#150=PRESENTATION_STYLE_ASSIGNMENT((#265));
#151=EDGE_CURVE('',#107,#93,#266,.T.);
#152=PRODUCT('1','1','PART-1-DESC',(#267));
#153=PRODUCT_DEFINITION('NONE','NONE',#268,#2);
#154=MANIFOLD_SOLID_BREP('1',#269);
#155=AXIS2_PLACEMENT_3D('',#270,#271,#272);
#158=LENGTH_MEASURE_WITH_UNIT(LENGTH_MEASURE(1.0),#273);
#161=DIMENSIONAL_EXPONENTS(1.0,0.0,0.0,0.0,0.0,0.0,0.0);
#163=DIMENSIONAL_EXPONENTS(0.0,0.0,0.0,0.0,0.0,0.0,0.0);
#169=CURVE_STYLE('',#274,POSITIVE_LENGTH_MEASURE(1.0E-006),#275);
#170=LINE('',#276,#277);
#171=SURFACE_STYLE_USAGE(.BOTH.,#278);
#172=FACE_OUTER_BOUND('',#279,.T.);
#173=CYLINDRICAL_SURFACE('',#280,10.0);
#174=POINT_STYLE(' ',#281,POSITIVE_LENGTH_MEASURE(1.0E-006),#282);
#175=CARTESIAN_POINT('',(5.0,-5.81688018065629E-016,-9.5));
#176=CURVE_STYLE('',#283,POSITIVE_LENGTH_MEASURE(1.0E-006),#284);
#177=LINE('',#285,#286);
#178=CURVE_STYLE('',#287,POSITIVE_LENGTH_MEASURE(1.0E-006),#288);
#179=CIRCLE('',#289,4.5);
#180=SURFACE_STYLE_USAGE(.BOTH.,#290);
#181=FACE_OUTER_BOUND('',#291,.T.);
#182=CONICAL_SURFACE('',#292,4.75,0.197395559849881);
#183=CURVE_STYLE('',#293,POSITIVE_LENGTH_MEASURE(1.0E-006),#294);
#184=CIRCLE('',#295,5.0);
#185=POINT_STYLE(' ',#296,POSITIVE_LENGTH_MEASURE(1.0E-006),#297);
#186=CARTESIAN_POINT('',(-10.0,-1.22460635382238E-015,7.49830360911069E-032));
#187=CURVE_STYLE('',#298,POSITIVE_LENGTH_MEASURE(1.0E-006),#299);
#188=CIRCLE('',#300,10.0);
#189=SURFACE_STYLE_USAGE(.BOTH.,#301);
#190=FACE_BOUND('',#302,.T.);
#191=FACE_OUTER_BOUND('',#303,.T.);
#192=PLANE('',#304);
#193=SURFACE_STYLE_USAGE(.BOTH.,#305);
#194=FACE_OUTER_BOUND('',#306,.T.);
#195=PLANE('',#307);
#196=POINT_STYLE(' ',#308,POSITIVE_LENGTH_MEASURE(1.0E-006),#309);
#197=CARTESIAN_POINT('',(-10.0,-5.63318922758293E-016,10.8));
#198=CURVE_STYLE('',#310,POSITIVE_LENGTH_MEASURE(1.0E-006),#311);
#199=CIRCLE('',#312,10.0);
#200=POINT_STYLE(' ',#313,POSITIVE_LENGTH_MEASURE(1.0E-006),#314);
#201=CARTESIAN_POINT('',(-5.0,-6.12303176911189E-016,3.74915180455534E-032));
#202=CURVE_STYLE('',#315,POSITIVE_LENGTH_MEASURE(1.0E-006),#316);
#203=CIRCLE('',#317,5.0);
#204=CURVE_STYLE('',#318,POSITIVE_LENGTH_MEASURE(1.0E-006),#319);
#205=CIRCLE('',#320,8.8);
#206=SURFACE_STYLE_USAGE(.BOTH.,#321);
#207=FACE_OUTER_BOUND('',#322,.T.);
#208=CONICAL_SURFACE('',#323,9.4,0.785398163397448);
#209=POINT_STYLE(' ',#324,POSITIVE_LENGTH_MEASURE(1.0E-006),#325);
#210=CARTESIAN_POINT('',(5.0,0.0,0.0));
#211=CURVE_STYLE('',#326,POSITIVE_LENGTH_MEASURE(1.0E-006),#327);
#212=LINE('',#328,#329);
#213=SURFACE_STYLE_USAGE(.BOTH.,#330);
#214=FACE_OUTER_BOUND('',#331,.T.);
#215=PLANE('',#332);
#216=POINT_STYLE(' ',#333,POSITIVE_LENGTH_MEASURE(1.0E-006),#334);
#217=CARTESIAN_POINT('',(-5.0,-1.19399119497682E-015,-9.5));
#218=POINT_STYLE(' ',#335,POSITIVE_LENGTH_MEASURE(1.0E-006),#336);
#219=CARTESIAN_POINT('',(-8.8,-3.42889779070266E-016,12.0));
#220=CURVE_STYLE('',#337,POSITIVE_LENGTH_MEASURE(1.0E-006),#338);
#221=CIRCLE('',#339,8.8);
#222=POINT_STYLE(' ',#340,POSITIVE_LENGTH_MEASURE(1.0E-006),#341);
#223=CARTESIAN_POINT('',(10.0,0.0,0.0));
#224=CURVE_STYLE('',#342,POSITIVE_LENGTH_MEASURE(1.0E-006),#343);
#225=LINE('',#344,#345);
#226=POINT_STYLE(' ',#346,POSITIVE_LENGTH_MEASURE(1.0E-006),#347);
#227=CARTESIAN_POINT('',(8.8,7.34763812293426E-016,12.0));
#228=CURVE_STYLE('',#348,POSITIVE_LENGTH_MEASURE(1.0E-006),#349);
#229=LINE('',#350,#351);
#230=POINT_STYLE(' ',#352,POSITIVE_LENGTH_MEASURE(1.0E-006),#353);
#231=CARTESIAN_POINT('',(4.5,-7.34763812293426E-016,-12.0));
#232=SURFACE_STYLE_USAGE(.BOTH.,#354);
#233=FACE_OUTER_BOUND('',#355,.T.);
#234=CYLINDRICAL_SURFACE('',#356,5.0);
#235=CURVE_STYLE('',#357,POSITIVE_LENGTH_MEASURE(1.0E-006),#358);
#236=LINE('',#359,#360);
#237=POINT_STYLE(' ',#361,POSITIVE_LENGTH_MEASURE(1.0E-006),#362);
#238=CARTESIAN_POINT('',(10.0,6.61287431064084E-016,10.8));
#239=SURFACE_STYLE_USAGE(.BOTH.,#363);
#240=FACE_OUTER_BOUND('',#364,.T.);
#241=CONICAL_SURFACE('',#365,4.75,0.197395559849881);
#242=POINT_STYLE(' ',#366,POSITIVE_LENGTH_MEASURE(1.0E-006),#367);
#243=CARTESIAN_POINT('',(-4.5,-1.2858366715135E-015,-12.0));
#244=CURVE_STYLE('',#368,POSITIVE_LENGTH_MEASURE(1.0E-006),#369);
#245=CIRCLE('',#370,10.0);
#246=CURVE_STYLE('',#371,POSITIVE_LENGTH_MEASURE(1.0E-006),#372);
#247=CIRCLE('',#373,10.0);
#248=CURVE_STYLE('',#374,POSITIVE_LENGTH_MEASURE(1.0E-006),#375);
#249=CIRCLE('',#376,5.0);
#250=CURVE_STYLE('',#377,POSITIVE_LENGTH_MEASURE(1.0E-006),#378);
#251=LINE('',#379,#380);
#252=CURVE_STYLE('',#381,POSITIVE_LENGTH_MEASURE(1.0E-006),#382);
#253=CIRCLE('',#383,4.5);
#254=SURFACE_STYLE_USAGE(.BOTH.,#384);
#255=FACE_OUTER_BOUND('',#385,.T.);
#256=CONICAL_SURFACE('',#386,9.4,0.785398163397448);
#257=SURFACE_STYLE_USAGE(.BOTH.,#387);
#258=FACE_OUTER_BOUND('',#388,.T.);
#259=CYLINDRICAL_SURFACE('',#389,5.0);
#260=SURFACE_STYLE_USAGE(.BOTH.,#390);
#261=FACE_OUTER_BOUND('',#391,.T.);
#262=CYLINDRICAL_SURFACE('',#392,10.0);
#263=CURVE_STYLE('',#393,POSITIVE_LENGTH_MEASURE(1.0E-006),#394);
#264=CIRCLE('',#395,5.0);
#265=CURVE_STYLE('',#396,POSITIVE_LENGTH_MEASURE(1.0E-006),#397);
#266=LINE('',#398,#399);
#267=PRODUCT_CONTEXT('',#53,'mechanical');
#268=PRODUCT_DEFINITION_FORMATION_WITH_SPECIFIED_SOURCE(' ','NONE',#152,.NOT_KNOWN.);
#269=CLOSED_SHELL('',(#77,#123,#69,#143,#87,#99,#147,#85,#145,#129,#105));
#270=CARTESIAN_POINT('',(0.0,0.0,0.0));
#271=DIRECTION('',(0.0,0.0,1.0));
#272=DIRECTION('',(1.0,0.0,0.0));
#273= (NAMED_UNIT(#161)LENGTH_UNIT()SI_UNIT(.MILLI.,.METRE.));
#274=DRAUGHTING_PRE_DEFINED_CURVE_FONT('continuous');
#275=COLOUR_RGB('',0.509803950786591,0.509803950786591,0.588235318660736);
#276=CARTESIAN_POINT('',(-4.75,-1.23991393324516E-015,-10.75));
#277=VECTOR('',#401,1.0);
#278=SURFACE_SIDE_STYLE('',(#402));
#279=EDGE_LOOP('',(#403,#404,#405,#406));
#280=AXIS2_PLACEMENT_3D('',#407,#408,#409);
#281=PRE_DEFINED_MARKER('');
#282=COLOUR_RGB('',0.509803950786591,0.509803950786591,0.588235318660736);
#283=DRAUGHTING_PRE_DEFINED_CURVE_FONT('continuous');
#284=COLOUR_RGB('',0.509803950786591,0.509803950786591,0.588235318660736);
#285=CARTESIAN_POINT('',(-10.0,-8.93962638290335E-016,5.4));
#286=VECTOR('',#410,1.0);
#287=DRAUGHTING_PRE_DEFINED_CURVE_FONT('continuous');
#288=COLOUR_RGB('',0.509803950786591,0.509803950786591,0.588235318660736);
#289=AXIS2_PLACEMENT_3D('',#411,#412,#413);
#290=SURFACE_SIDE_STYLE('',(#414));
#291=EDGE_LOOP('',(#415,#416,#417,#418));
#292=AXIS2_PLACEMENT_3D('',#419,#420,#421);
#293=DRAUGHTING_PRE_DEFINED_CURVE_FONT('continuous');
#294=COLOUR_RGB('',0.509803950786591,0.509803950786591,0.588235318660736);
#295=AXIS2_PLACEMENT_3D('',#422,#423,#424);
#296=PRE_DEFINED_MARKER('');
#297=COLOUR_RGB('',0.509803950786591,0.509803950786591,0.588235318660736);
#298=DRAUGHTING_PRE_DEFINED_CURVE_FONT('continuous');
#299=COLOUR_RGB('',0.509803950786591,0.509803950786591,0.588235318660736);
#300=AXIS2_PLACEMENT_3D('',#425,#426,#427);
#301=SURFACE_SIDE_STYLE('',(#428));
#302=EDGE_LOOP('',(#429,#430));
#303=EDGE_LOOP('',(#431,#432));
#304=AXIS2_PLACEMENT_3D('',#433,#434,#435);
#305=SURFACE_SIDE_STYLE('',(#436));
#306=EDGE_LOOP('',(#437,#438));
#307=AXIS2_PLACEMENT_3D('',#439,#440,#441);
#308=PRE_DEFINED_MARKER('');
#309=COLOUR_RGB('',0.509803950786591,0.509803950786591,0.588235318660736);
#310=DRAUGHTING_PRE_DEFINED_CURVE_FONT('continuous');
#311=COLOUR_RGB('',0.509803950786591,0.509803950786591,0.588235318660736);
#312=AXIS2_PLACEMENT_3D('',#442,#443,#444);
#313=PRE_DEFINED_MARKER('');
#314=COLOUR_RGB('',0.509803950786591,0.509803950786591,0.588235318660736);
#315=DRAUGHTING_PRE_DEFINED_CURVE_FONT('continuous');
#316=COLOUR_RGB('',0.509803950786591,0.509803950786591,0.588235318660736);
#317=AXIS2_PLACEMENT_3D('',#445,#446,#447);
#318=DRAUGHTING_PRE_DEFINED_CURVE_FONT('continuous');
#319=COLOUR_RGB('',0.509803950786591,0.509803950786591,0.588235318660736);
#320=AXIS2_PLACEMENT_3D('',#448,#449,#450);
#321=SURFACE_SIDE_STYLE('',(#451));
#322=EDGE_LOOP('',(#452,#453,#454,#455));
#323=AXIS2_PLACEMENT_3D('',#456,#457,#458);
#324=PRE_DEFINED_MARKER('');
#325=COLOUR_RGB('',0.509803950786591,0.509803950786591,0.588235318660736);
#326=DRAUGHTING_PRE_DEFINED_CURVE_FONT('continuous');
#327=COLOUR_RGB('',0.509803950786591,0.509803950786591,0.588235318660736);
#328=CARTESIAN_POINT('',(-9.4,-4.5310435091428E-016,11.4));
#329=VECTOR('',#459,1.0);
#330=SURFACE_SIDE_STYLE('',(#460));
#331=EDGE_LOOP('',(#461,#462));
#332=AXIS2_PLACEMENT_3D('',#463,#464,#465);
#333=PRE_DEFINED_MARKER('');
#334=COLOUR_RGB('',0.509803950786591,0.509803950786591,0.588235318660736);
#335=PRE_DEFINED_MARKER('');
#336=COLOUR_RGB('',0.509803950786591,0.509803950786591,0.588235318660736);
#337=DRAUGHTING_PRE_DEFINED_CURVE_FONT('continuous');
#338=COLOUR_RGB('',0.509803950786591,0.509803950786591,0.588235318660736);
#339=AXIS2_PLACEMENT_3D('',#466,#467,#468);
#340=PRE_DEFINED_MARKER('');
#341=COLOUR_RGB('',0.509803950786591,0.509803950786591,0.588235318660736);
#342=DRAUGHTING_PRE_DEFINED_CURVE_FONT('continuous');
#343=COLOUR_RGB('',0.509803950786591,0.509803950786591,0.588235318660736);
#344=CARTESIAN_POINT('',(10.0,1.55525006935442E-015,5.4));
#345=VECTOR('',#469,1.0);
#346=PRE_DEFINED_MARKER('');
#347=COLOUR_RGB('',0.509803950786591,0.509803950786591,0.588235318660736);
#348=DRAUGHTING_PRE_DEFINED_CURVE_FONT('continuous');
#349=COLOUR_RGB('',0.509803950786591,0.509803950786591,0.588235318660736);
#350=CARTESIAN_POINT('',(9.4,1.84915559427179E-015,11.4));
#351=VECTOR('',#470,1.0);
#352=PRE_DEFINED_MARKER('');
#353=COLOUR_RGB('',0.509803950786591,0.509803950786591,0.588235318660736);
#354=SURFACE_SIDE_STYLE('',(#471));
#355=EDGE_LOOP('',(#472,#473,#474,#475));
#356=AXIS2_PLACEMENT_3D('',#476,#477,#478);
#357=DRAUGHTING_PRE_DEFINED_CURVE_FONT('continuous');
#358=COLOUR_RGB('',0.509803950786591,0.509803950786591,0.588235318660736);
#359=CARTESIAN_POINT('',(4.75,-7.65378971138986E-017,-10.75));
#360=VECTOR('',#479,1.0);
#361=PRE_DEFINED_MARKER('');
#362=COLOUR_RGB('',0.509803950786591,0.509803950786591,0.588235318660736);
#363=SURFACE_SIDE_STYLE('',(#480));
#364=EDGE_LOOP('',(#481,#482,#483,#484));
#365=AXIS2_PLACEMENT_3D('',#485,#486,#487);
#366=PRE_DEFINED_MARKER('');
#367=COLOUR_RGB('',0.509803950786591,0.509803950786591,0.588235318660736);
#368=DRAUGHTING_PRE_DEFINED_CURVE_FONT('continuous');
#369=COLOUR_RGB('',0.509803950786591,0.509803950786591,0.588235318660736);
#370=AXIS2_PLACEMENT_3D('',#488,#489,#490);
#371=DRAUGHTING_PRE_DEFINED_CURVE_FONT('continuous');
#372=COLOUR_RGB('',0.509803950786591,0.509803950786591,0.588235318660736);
#373=AXIS2_PLACEMENT_3D('',#491,#492,#493);
#374=DRAUGHTING_PRE_DEFINED_CURVE_FONT('continuous');
#375=COLOUR_RGB('',0.509803950786591,0.509803950786591,0.588235318660736);
#376=AXIS2_PLACEMENT_3D('',#494,#495,#496);
#377=DRAUGHTING_PRE_DEFINED_CURVE_FONT('continuous');
#378=COLOUR_RGB('',0.509803950786591,0.509803950786591,0.588235318660736);
#379=CARTESIAN_POINT('',(5.0,3.21459167878374E-016,-4.75));
#380=VECTOR('',#497,1.0);
#381=DRAUGHTING_PRE_DEFINED_CURVE_FONT('continuous');
#382=COLOUR_RGB('',0.509803950786591,0.509803950786591,0.588235318660736);
#383=AXIS2_PLACEMENT_3D('',#498,#499,#500);
#384=SURFACE_SIDE_STYLE('',(#501));
#385=EDGE_LOOP('',(#502,#503,#504,#505));
#386=AXIS2_PLACEMENT_3D('',#506,#507,#508);
#387=SURFACE_SIDE_STYLE('',(#509));
#388=EDGE_LOOP('',(#510,#511,#512,#513));
#389=AXIS2_PLACEMENT_3D('',#514,#515,#516);
#390=SURFACE_SIDE_STYLE('',(#517));
#391=EDGE_LOOP('',(#518,#519,#520,#521));
#392=AXIS2_PLACEMENT_3D('',#522,#523,#524);
#393=DRAUGHTING_PRE_DEFINED_CURVE_FONT('continuous');
#394=COLOUR_RGB('',0.509803950786591,0.509803950786591,0.588235318660736);
#395=AXIS2_PLACEMENT_3D('',#525,#526,#527);
#396=DRAUGHTING_PRE_DEFINED_CURVE_FONT('continuous');
#397=COLOUR_RGB('',0.509803950786591,0.509803950786591,0.588235318660736);
#398=CARTESIAN_POINT('',(-5.0,-9.03147185944003E-016,-4.75));
#399=VECTOR('',#528,1.0);
#401=DIRECTION('',(-0.196116135138184,3.60247597765962E-017,0.98058067569092));
#402=SURFACE_STYLE_FILL_AREA(#529);
#403=ORIENTED_EDGE('',*,*,#115,.F.);
#404=ORIENTED_EDGE('',*,*,#133,.T.);
#405=ORIENTED_EDGE('',*,*,#73,.F.);
#406=ORIENTED_EDGE('',*,*,#135,.F.);
#407=CARTESIAN_POINT('',(0.0,3.30643715532042E-016,5.4));
#408=DIRECTION('',(-0.0,6.12303176911189E-017,1.0));
#409=DIRECTION('',(1.0,0.0,0.0));
#410=DIRECTION('',(-0.0,6.12303176911189E-017,1.0));
#411=CARTESIAN_POINT('',(0.0,-7.34763812293426E-016,-12.0));
#412=DIRECTION('',(0.0,-6.12303176911189E-017,-1.0));
#413=DIRECTION('',(1.0,0.0,0.0));
#414=SURFACE_STYLE_FILL_AREA(#530);
#415=ORIENTED_EDGE('',*,*,#125,.F.);
#416=ORIENTED_EDGE('',*,*,#149,.T.);
#417=ORIENTED_EDGE('',*,*,#67,.F.);
#418=ORIENTED_EDGE('',*,*,#75,.F.);
#419=CARTESIAN_POINT('',(0.0,-6.58225915179528E-016,-10.75));
#420=DIRECTION('',(-0.0,6.12303176911189E-017,1.0));
#421=DIRECTION('',(1.0,0.0,0.0));
#422=CARTESIAN_POINT('',(0.0,0.0,0.0));
#423=DIRECTION('',(0.0,-6.12303176911189E-017,-1.0));
#424=DIRECTION('',(1.0,0.0,0.0));
#425=CARTESIAN_POINT('',(0.0,0.0,0.0));
#426=DIRECTION('',(0.0,-6.12303176911189E-017,-1.0));
#427=DIRECTION('',(1.0,0.0,0.0));
#428=SURFACE_STYLE_FILL_AREA(#531);
#429=ORIENTED_EDGE('',*,*,#95,.F.);
#430=ORIENTED_EDGE('',*,*,#79,.F.);
#431=ORIENTED_EDGE('',*,*,#135,.T.);
#432=ORIENTED_EDGE('',*,*,#83,.T.);
#433=CARTESIAN_POINT('',(7.5,0.0,0.0));
#434=DIRECTION('',(0.0,-6.12303176911189E-017,-1.0));
#435=DIRECTION('',(1.0,0.0,0.0));
#436=SURFACE_STYLE_FILL_AREA(#532);
#437=ORIENTED_EDGE('',*,*,#111,.F.);
#438=ORIENTED_EDGE('',*,*,#97,.F.);
#439=CARTESIAN_POINT('',(4.4,7.34763812293426E-016,12.0));
#440=DIRECTION('',(0.0,6.12303176911189E-017,1.0));
#441=DIRECTION('',(-1.0,0.0,0.0));
#442=CARTESIAN_POINT('',(0.0,6.61287431064084E-016,10.8));
#443=DIRECTION('',(0.0,-6.12303176911189E-017,-1.0));
#444=DIRECTION('',(1.0,0.0,0.0));
#445=CARTESIAN_POINT('',(0.0,0.0,0.0));
#446=DIRECTION('',(0.0,-6.12303176911189E-017,-1.0));
#447=DIRECTION('',(1.0,0.0,0.0));
#448=CARTESIAN_POINT('',(0.0,7.34763812293426E-016,12.0));
#449=DIRECTION('',(0.0,-6.12303176911189E-017,-1.0));
#450=DIRECTION('',(1.0,0.0,0.0));
#451=SURFACE_STYLE_FILL_AREA(#533);
#452=ORIENTED_EDGE('',*,*,#119,.T.);
#453=ORIENTED_EDGE('',*,*,#91,.F.);
#454=ORIENTED_EDGE('',*,*,#103,.T.);
#455=ORIENTED_EDGE('',*,*,#97,.T.);
#456=CARTESIAN_POINT('',(0.0,6.98025621678755E-016,11.4));
#457=DIRECTION('',(0.0,-6.12303176911189E-017,-1.0));
#458=DIRECTION('',(1.0,0.0,0.0));
#459=DIRECTION('',(0.707106781186548,1.2988911856079E-016,0.707106781186548));
#460=SURFACE_STYLE_FILL_AREA(#534);
#461=ORIENTED_EDGE('',*,*,#75,.T.);
#462=ORIENTED_EDGE('',*,*,#141,.T.);
#463=CARTESIAN_POINT('',(2.25,-7.34763812293426E-016,-12.0));
#464=DIRECTION('',(0.0,-6.12303176911189E-017,-1.0));
#465=DIRECTION('',(1.0,0.0,0.0));
#466=CARTESIAN_POINT('',(0.0,7.34763812293426E-016,12.0));
#467=DIRECTION('',(0.0,-6.12303176911189E-017,-1.0));
#468=DIRECTION('',(1.0,0.0,0.0));
#469=DIRECTION('',(0.0,-6.12303176911189E-017,-1.0));
#470=DIRECTION('',(0.707106781186548,4.32963728535968E-017,-0.707106781186548));
#471=SURFACE_STYLE_FILL_AREA(#535);
#472=ORIENTED_EDGE('',*,*,#139,.F.);
#473=ORIENTED_EDGE('',*,*,#95,.T.);
#474=ORIENTED_EDGE('',*,*,#151,.F.);
#475=ORIENTED_EDGE('',*,*,#149,.F.);
#476=CARTESIAN_POINT('',(0.0,-2.90844009032815E-016,-4.75));
#477=DIRECTION('',(-0.0,6.12303176911189E-017,1.0));
#478=DIRECTION('',(1.0,0.0,0.0));
#479=DIRECTION('',(-0.196116135138184,-8.40577728120578E-017,-0.98058067569092));
#480=SURFACE_STYLE_FILL_AREA(#536);
#481=ORIENTED_EDGE('',*,*,#125,.T.);
#482=ORIENTED_EDGE('',*,*,#141,.F.);
#483=ORIENTED_EDGE('',*,*,#67,.T.);
#484=ORIENTED_EDGE('',*,*,#137,.T.);
#485=CARTESIAN_POINT('',(0.0,-6.58225915179528E-016,-10.75));
#486=DIRECTION('',(-0.0,6.12303176911189E-017,1.0));
#487=DIRECTION('',(1.0,0.0,0.0));
#488=CARTESIAN_POINT('',(0.0,6.61287431064084E-016,10.8));
#489=DIRECTION('',(0.0,-6.12303176911189E-017,-1.0));
#490=DIRECTION('',(1.0,0.0,0.0));
#491=CARTESIAN_POINT('',(0.0,0.0,0.0));
#492=DIRECTION('',(0.0,-6.12303176911189E-017,-1.0));
#493=DIRECTION('',(1.0,0.0,0.0));
#494=CARTESIAN_POINT('',(0.0,-5.81688018065629E-016,-9.5));
#495=DIRECTION('',(0.0,-6.12303176911189E-017,-1.0));
#496=DIRECTION('',(1.0,0.0,0.0));
#497=DIRECTION('',(0.0,-6.12303176911189E-017,-1.0));
#498=CARTESIAN_POINT('',(0.0,-7.34763812293426E-016,-12.0));
#499=DIRECTION('',(0.0,-6.12303176911189E-017,-1.0));
#500=DIRECTION('',(1.0,0.0,0.0));
#501=SURFACE_STYLE_FILL_AREA(#537);
#502=ORIENTED_EDGE('',*,*,#119,.F.);
#503=ORIENTED_EDGE('',*,*,#111,.T.);
#504=ORIENTED_EDGE('',*,*,#103,.F.);
#505=ORIENTED_EDGE('',*,*,#133,.F.);
#506=CARTESIAN_POINT('',(0.0,6.98025621678755E-016,11.4));
#507=DIRECTION('',(0.0,-6.12303176911189E-017,-1.0));
#508=DIRECTION('',(1.0,0.0,0.0));
#509=SURFACE_STYLE_FILL_AREA(#538);
#510=ORIENTED_EDGE('',*,*,#139,.T.);
#511=ORIENTED_EDGE('',*,*,#137,.F.);
#512=ORIENTED_EDGE('',*,*,#151,.T.);
#513=ORIENTED_EDGE('',*,*,#79,.T.);
#514=CARTESIAN_POINT('',(0.0,-2.90844009032815E-016,-4.75));
#515=DIRECTION('',(-0.0,6.12303176911189E-017,1.0));
#516=DIRECTION('',(1.0,0.0,0.0));
#517=SURFACE_STYLE_FILL_AREA(#539);
#518=ORIENTED_EDGE('',*,*,#115,.T.);
#519=ORIENTED_EDGE('',*,*,#83,.F.);
#520=ORIENTED_EDGE('',*,*,#73,.T.);
#521=ORIENTED_EDGE('',*,*,#91,.T.);
#522=CARTESIAN_POINT('',(0.0,3.30643715532042E-016,5.4));
#523=DIRECTION('',(-0.0,6.12303176911189E-017,1.0));
#524=DIRECTION('',(1.0,0.0,0.0));
#525=CARTESIAN_POINT('',(0.0,-5.81688018065629E-016,-9.5));
#526=DIRECTION('',(0.0,-6.12303176911189E-017,-1.0));
#527=DIRECTION('',(1.0,0.0,0.0));
#528=DIRECTION('',(-0.0,6.12303176911189E-017,1.0));
#529=FILL_AREA_STYLE('',(#540));
#530=FILL_AREA_STYLE('',(#541));
#531=FILL_AREA_STYLE('',(#542));
#532=FILL_AREA_STYLE('',(#543));
#533=FILL_AREA_STYLE('',(#544));
#534=FILL_AREA_STYLE('',(#545));
#535=FILL_AREA_STYLE('',(#546));
#536=FILL_AREA_STYLE('',(#547));
#537=FILL_AREA_STYLE('',(#548));
#538=FILL_AREA_STYLE('',(#549));
#539=FILL_AREA_STYLE('',(#550));
#540=FILL_AREA_STYLE_COLOUR('',#551);
#541=FILL_AREA_STYLE_COLOUR('',#552);
#542=FILL_AREA_STYLE_COLOUR('',#553);
#543=FILL_AREA_STYLE_COLOUR('',#554);
#544=FILL_AREA_STYLE_COLOUR('',#555);
#545=FILL_AREA_STYLE_COLOUR('',#556);
#546=FILL_AREA_STYLE_COLOUR('',#557);
#547=FILL_AREA_STYLE_COLOUR('',#558);
#548=FILL_AREA_STYLE_COLOUR('',#559);
#549=FILL_AREA_STYLE_COLOUR('',#560);
#550=FILL_AREA_STYLE_COLOUR('',#561);
#551=COLOUR_RGB('',0.509803950786591,0.509803950786591,0.588235318660736);
#552=COLOUR_RGB('',0.509803950786591,0.509803950786591,0.588235318660736);
#553=COLOUR_RGB('',0.509803950786591,0.509803950786591,0.588235318660736);
#554=COLOUR_RGB('',0.509803950786591,0.509803950786591,0.588235318660736);
#555=COLOUR_RGB('',0.509803950786591,0.509803950786591,0.588235318660736);
#556=COLOUR_RGB('',0.509803950786591,0.509803950786591,0.588235318660736);
#557=COLOUR_RGB('',0.509803950786591,0.509803950786591,0.588235318660736);
#558=COLOUR_RGB('',0.509803950786591,0.509803950786591,0.588235318660736);
#559=COLOUR_RGB('',0.509803950786591,0.509803950786591,0.588235318660736);
#560=COLOUR_RGB('',0.509803950786591,0.509803950786591,0.588235318660736);
#561=COLOUR_RGB('',0.509803950786591,0.509803950786591,0.588235318660736);
ENDSEC;
END-ISO-10303-21;
