ISO-10303-21;
HEADER;
FILE_DESCRIPTION(('STEP AP214'),'1');
FILE_NAME(' ','  ',('TraceParts'),('TraceParts S.A.'),'XStep 1.0',' ',' ');
FILE_SCHEMA(('automotive_design'));
ENDSEC;
DATA;
#1=MECHANICAL_DESIGN_GEOMETRIC_PRESENTATION_REPRESENTATION(' ',(#10,#11,#12,#13,#14,#15,#16,#17,#18,#19,#20,#21,#22,#23,#24,#25,#26,#27,#28,#29,#30,#31,#32,#33,#34,#35,#36,#37,#38,#39,#40,#41,#42,#43,#44,#45,#46,#47,#48,#49,#50,#51,#52),#6);
#2=PRODUCT_DEFINITION_CONTEXT('',#53,'design');
#3=APPLICATION_PROTOCOL_DEFINITION('INTERNATIONAL STANDARD','automotive_design',1994,#53);
#4=PRODUCT_CATEGORY_RELATIONSHIP('NONE','NONE',#54,#55);
#5=SHAPE_DEFINITION_REPRESENTATION(#56,#57);
#6= (GEOMETRIC_REPRESENTATION_CONTEXT(3)GLOBAL_UNCERTAINTY_ASSIGNED_CONTEXT((#60))GLOBAL_UNIT_ASSIGNED_CONTEXT((#62,#63,#64))REPRESENTATION_CONTEXT('NONE','WORKSPACE'));
#10=STYLED_ITEM('',(#66),#67);
#11=STYLED_ITEM('',(#68),#69);
#12=STYLED_ITEM('',(#70),#71);
#13=STYLED_ITEM('',(#72),#73);
#14=STYLED_ITEM('',(#74),#75);
#15=STYLED_ITEM('',(#76),#77);
#16=STYLED_ITEM('',(#78),#79);
#17=STYLED_ITEM('',(#80),#81);
#18=STYLED_ITEM('',(#82),#83);
#19=STYLED_ITEM('',(#84),#85);
#20=STYLED_ITEM('',(#86),#87);
#21=STYLED_ITEM('',(#88),#89);
#22=STYLED_ITEM('',(#90),#91);
#23=STYLED_ITEM('',(#92),#93);
#24=STYLED_ITEM('',(#94),#95);
#25=STYLED_ITEM('',(#96),#97);
#26=STYLED_ITEM('',(#98),#99);
#27=STYLED_ITEM('',(#100),#101);
#28=STYLED_ITEM('',(#102),#103);
#29=STYLED_ITEM('',(#104),#105);
#30=STYLED_ITEM('',(#106),#107);
#31=STYLED_ITEM('',(#108),#109);
#32=STYLED_ITEM('',(#110),#111);
#33=STYLED_ITEM('',(#112),#113);
#34=STYLED_ITEM('',(#114),#115);
#35=STYLED_ITEM('',(#116),#117);
#36=STYLED_ITEM('',(#118),#119);
#37=STYLED_ITEM('',(#120),#121);
#38=STYLED_ITEM('',(#122),#123);
#39=STYLED_ITEM('',(#124),#125);
#40=STYLED_ITEM('',(#126),#127);
#41=STYLED_ITEM('',(#128),#129);
#42=STYLED_ITEM('',(#130),#131);
#43=STYLED_ITEM('',(#132),#133);
#44=STYLED_ITEM('',(#134),#135);
#45=STYLED_ITEM('',(#136),#137);
#46=STYLED_ITEM('',(#138),#139);
#47=STYLED_ITEM('',(#140),#141);
#48=STYLED_ITEM('',(#142),#143);
#49=STYLED_ITEM('',(#144),#145);
#50=STYLED_ITEM('',(#146),#147);
#51=STYLED_ITEM('',(#148),#149);
#52=STYLED_ITEM('',(#150),#151);
#53=APPLICATION_CONTEXT(' ');
#54=PRODUCT_CATEGORY('part','NONE');
#55=PRODUCT_RELATED_PRODUCT_CATEGORY('detail',' ',(#152));
#56=PRODUCT_DEFINITION_SHAPE('NONE','NONE',#153);
#57=ADVANCED_BREP_SHAPE_REPRESENTATION('1',(#154,#155),#6);
#60=UNCERTAINTY_MEASURE_WITH_UNIT(LENGTH_MEASURE(1.0E-006),#62,'','');
#62= (CONVERSION_BASED_UNIT('MILLIMETRE',#158)LENGTH_UNIT()NAMED_UNIT(#161));
#63= (NAMED_UNIT(#163)PLANE_ANGLE_UNIT()SI_UNIT($,.RADIAN.));
#64= (NAMED_UNIT(#163)SOLID_ANGLE_UNIT()SI_UNIT($,.STERADIAN.));
#66=PRESENTATION_STYLE_ASSIGNMENT((#169));
#67=ADVANCED_FACE('',(#170),#171,.T.);
#68=PRESENTATION_STYLE_ASSIGNMENT((#172));
#69=VERTEX_POINT('',#173);
#70=PRESENTATION_STYLE_ASSIGNMENT((#174));
#71=EDGE_CURVE('',#69,#129,#175,.T.);
#72=PRESENTATION_STYLE_ASSIGNMENT((#176));
#73=VERTEX_POINT('',#177);
#74=PRESENTATION_STYLE_ASSIGNMENT((#178));
#75=EDGE_CURVE('',#85,#141,#179,.T.);
#76=PRESENTATION_STYLE_ASSIGNMENT((#180));
#77=ADVANCED_FACE('',(#181),#182,.T.);
#78=PRESENTATION_STYLE_ASSIGNMENT((#183));
#79=EDGE_CURVE('',#141,#85,#184,.T.);
#80=PRESENTATION_STYLE_ASSIGNMENT((#185));
#81=ADVANCED_FACE('',(#186),#187,.T.);
#82=PRESENTATION_STYLE_ASSIGNMENT((#188));
#83=ADVANCED_FACE('',(#189),#190,.T.);
#84=PRESENTATION_STYLE_ASSIGNMENT((#191));
#85=VERTEX_POINT('',#192);
#86=PRESENTATION_STYLE_ASSIGNMENT((#193));
#87=VERTEX_POINT('',#194);
#88=PRESENTATION_STYLE_ASSIGNMENT((#195));
#89=ADVANCED_FACE('',(#196),#197,.T.);
#90=PRESENTATION_STYLE_ASSIGNMENT((#198));
#91=EDGE_CURVE('',#141,#149,#199,.T.);
#92=PRESENTATION_STYLE_ASSIGNMENT((#200));
#93=EDGE_CURVE('',#73,#87,#201,.T.);
#94=PRESENTATION_STYLE_ASSIGNMENT((#202));
#95=EDGE_CURVE('',#131,#85,#203,.T.);
#96=PRESENTATION_STYLE_ASSIGNMENT((#204));
#97=EDGE_CURVE('',#147,#117,#205,.T.);
#98=PRESENTATION_STYLE_ASSIGNMENT((#206));
#99=EDGE_CURVE('',#87,#73,#207,.T.);
#100=PRESENTATION_STYLE_ASSIGNMENT((#208));
#101=ADVANCED_FACE('',(#209),#210,.T.);
#102=PRESENTATION_STYLE_ASSIGNMENT((#211));
#103=ADVANCED_FACE('',(#212),#213,.T.);
#104=PRESENTATION_STYLE_ASSIGNMENT((#214));
#105=EDGE_CURVE('',#121,#137,#215,.T.);
#106=PRESENTATION_STYLE_ASSIGNMENT((#216));
#107=EDGE_CURVE('',#149,#69,#217,.T.);
#108=PRESENTATION_STYLE_ASSIGNMENT((#218));
#109=EDGE_CURVE('',#87,#121,#219,.T.);
#110=PRESENTATION_STYLE_ASSIGNMENT((#220));
#111=EDGE_CURVE('',#137,#121,#221,.T.);
#112=PRESENTATION_STYLE_ASSIGNMENT((#222));
#113=ADVANCED_FACE('',(#223),#224,.T.);
#114=PRESENTATION_STYLE_ASSIGNMENT((#225));
#115=ADVANCED_FACE('',(#226),#227,.T.);
#116=PRESENTATION_STYLE_ASSIGNMENT((#228));
#117=VERTEX_POINT('',#229);
#118=PRESENTATION_STYLE_ASSIGNMENT((#230));
#119=EDGE_CURVE('',#129,#69,#231,.T.);
#120=PRESENTATION_STYLE_ASSIGNMENT((#232));
#121=VERTEX_POINT('',#233);
#122=PRESENTATION_STYLE_ASSIGNMENT((#234));
#123=EDGE_CURVE('',#73,#117,#235,.T.);
#124=PRESENTATION_STYLE_ASSIGNMENT((#236));
#125=EDGE_CURVE('',#131,#149,#237,.T.);
#126=PRESENTATION_STYLE_ASSIGNMENT((#238));
#127=ADVANCED_FACE('',(#239),#240,.T.);
#128=PRESENTATION_STYLE_ASSIGNMENT((#241));
#129=VERTEX_POINT('',#242);
#130=PRESENTATION_STYLE_ASSIGNMENT((#243));
#131=VERTEX_POINT('',#244);
#132=PRESENTATION_STYLE_ASSIGNMENT((#245));
#133=EDGE_CURVE('',#129,#131,#246,.T.);
#134=PRESENTATION_STYLE_ASSIGNMENT((#247));
#135=EDGE_CURVE('',#137,#73,#248,.T.);
#136=PRESENTATION_STYLE_ASSIGNMENT((#249));
#137=VERTEX_POINT('',#250);
#138=PRESENTATION_STYLE_ASSIGNMENT((#251));
#139=EDGE_CURVE('',#117,#147,#252,.T.);
#140=PRESENTATION_STYLE_ASSIGNMENT((#253));
#141=VERTEX_POINT('',#254);
#142=PRESENTATION_STYLE_ASSIGNMENT((#255));
#143=ADVANCED_FACE('',(#256,#257),#258,.T.);
#144=PRESENTATION_STYLE_ASSIGNMENT((#259));
#145=EDGE_CURVE('',#149,#131,#260,.T.);
#146=PRESENTATION_STYLE_ASSIGNMENT((#261));
#147=VERTEX_POINT('',#262);
#148=PRESENTATION_STYLE_ASSIGNMENT((#263));
#149=VERTEX_POINT('',#264);
#150=PRESENTATION_STYLE_ASSIGNMENT((#265));
#151=EDGE_CURVE('',#147,#87,#266,.T.);
#152=PRODUCT('1','1','PART-1-DESC',(#267));
#153=PRODUCT_DEFINITION('NONE','NONE',#268,#2);
#154=MANIFOLD_SOLID_BREP('1',#269);
#155=AXIS2_PLACEMENT_3D('',#270,#271,#272);
#158=LENGTH_MEASURE_WITH_UNIT(LENGTH_MEASURE(1.0),#273);
#161=DIMENSIONAL_EXPONENTS(1.0,0.0,0.0,0.0,0.0,0.0,0.0);
#163=DIMENSIONAL_EXPONENTS(0.0,0.0,0.0,0.0,0.0,0.0,0.0);
#169=SURFACE_STYLE_USAGE(.BOTH.,#274);
#170=FACE_OUTER_BOUND('',#275,.T.);
#171=CYLINDRICAL_SURFACE('',#276,5.0);
#172=POINT_STYLE(' ',#277,POSITIVE_LENGTH_MEASURE(1.0E-006),#278);
#173=CARTESIAN_POINT('',(4.5,-7.34763812293426E-016,-12.0));
#174=CURVE_STYLE('',#279,POSITIVE_LENGTH_MEASURE(1.0E-006),#280);
#175=CIRCLE('',#281,4.5);
#176=POINT_STYLE(' ',#282,POSITIVE_LENGTH_MEASURE(1.0E-006),#283);
#177=CARTESIAN_POINT('',(10.0,3.30643715532042E-016,5.4));
#178=CURVE_STYLE('',#284,POSITIVE_LENGTH_MEASURE(1.0E-006),#285);
#179=CIRCLE('',#286,5.0);
#180=SURFACE_STYLE_USAGE(.BOTH.,#287);
#181=FACE_OUTER_BOUND('',#288,.T.);
#182=PLANE('',#289);
#183=CURVE_STYLE('',#290,POSITIVE_LENGTH_MEASURE(1.0E-006),#291);
#184=CIRCLE('',#292,5.0);
#185=SURFACE_STYLE_USAGE(.BOTH.,#293);
#186=FACE_OUTER_BOUND('',#294,.T.);
#187=CONICAL_SURFACE('',#295,4.75,0.197395559849881);
#188=SURFACE_STYLE_USAGE(.BOTH.,#296);
#189=FACE_OUTER_BOUND('',#297,.T.);
#190=CYLINDRICAL_SURFACE('',#298,10.0);
#191=POINT_STYLE(' ',#299,POSITIVE_LENGTH_MEASURE(1.0E-006),#300);
#192=CARTESIAN_POINT('',(-5.0,-6.12303176911189E-016,3.74915180455534E-032));
#193=POINT_STYLE(' ',#301,POSITIVE_LENGTH_MEASURE(1.0E-006),#302);
#194=CARTESIAN_POINT('',(-10.0,-8.93962638290335E-016,5.4));
#195=SURFACE_STYLE_USAGE(.BOTH.,#303);
#196=FACE_OUTER_BOUND('',#304,.T.);
#197=CONICAL_SURFACE('',#305,4.75,0.197395559849881);
#198=CURVE_STYLE('',#306,POSITIVE_LENGTH_MEASURE(1.0E-006),#307);
#199=LINE('',#308,#309);
#200=CURVE_STYLE('',#310,POSITIVE_LENGTH_MEASURE(1.0E-006),#311);
#201=CIRCLE('',#312,10.0);
#202=CURVE_STYLE('',#313,POSITIVE_LENGTH_MEASURE(1.0E-006),#314);
#203=LINE('',#315,#316);
#204=CURVE_STYLE('',#317,POSITIVE_LENGTH_MEASURE(1.0E-006),#318);
#205=CIRCLE('',#319,10.0);
#206=CURVE_STYLE('',#320,POSITIVE_LENGTH_MEASURE(1.0E-006),#321);
#207=CIRCLE('',#322,10.0);
#208=SURFACE_STYLE_USAGE(.BOTH.,#323);
#209=FACE_OUTER_BOUND('',#324,.T.);
#210=CYLINDRICAL_SURFACE('',#325,5.0);
#211=SURFACE_STYLE_USAGE(.BOTH.,#326);
#212=FACE_OUTER_BOUND('',#327,.T.);
#213=CONICAL_SURFACE('',#328,9.7,0.785398163397448);
#214=CURVE_STYLE('',#329,POSITIVE_LENGTH_MEASURE(1.0E-006),#330);
#215=CIRCLE('',#331,9.4);
#216=CURVE_STYLE('',#332,POSITIVE_LENGTH_MEASURE(1.0E-006),#333);
#217=LINE('',#334,#335);
#218=CURVE_STYLE('',#336,POSITIVE_LENGTH_MEASURE(1.0E-006),#337);
#219=LINE('',#338,#339);
#220=CURVE_STYLE('',#340,POSITIVE_LENGTH_MEASURE(1.0E-006),#341);
#221=CIRCLE('',#342,9.4);
#222=SURFACE_STYLE_USAGE(.BOTH.,#343);
#223=FACE_OUTER_BOUND('',#344,.T.);
#224=PLANE('',#345);
#225=SURFACE_STYLE_USAGE(.BOTH.,#346);
#226=FACE_OUTER_BOUND('',#347,.T.);
#227=CONICAL_SURFACE('',#348,9.7,0.785398163397448);
#228=POINT_STYLE(' ',#349,POSITIVE_LENGTH_MEASURE(1.0E-006),#350);
#229=CARTESIAN_POINT('',(10.0,0.0,0.0));
#230=CURVE_STYLE('',#351,POSITIVE_LENGTH_MEASURE(1.0E-006),#352);
#231=CIRCLE('',#353,4.5);
#232=POINT_STYLE(' ',#354,POSITIVE_LENGTH_MEASURE(1.0E-006),#355);
#233=CARTESIAN_POINT('',(-9.4,-7.83748066446321E-016,6.0));
#234=CURVE_STYLE('',#356,POSITIVE_LENGTH_MEASURE(1.0E-006),#357);
#235=LINE('',#358,#359);
#236=CURVE_STYLE('',#360,POSITIVE_LENGTH_MEASURE(1.0E-006),#361);
#237=CIRCLE('',#362,5.0);
#238=SURFACE_STYLE_USAGE(.BOTH.,#363);
#239=FACE_OUTER_BOUND('',#364,.T.);
#240=CYLINDRICAL_SURFACE('',#365,10.0);
#241=POINT_STYLE(' ',#366,POSITIVE_LENGTH_MEASURE(1.0E-006),#367);
#242=CARTESIAN_POINT('',(-4.5,-1.2858366715135E-015,-12.0));
#243=POINT_STYLE(' ',#368,POSITIVE_LENGTH_MEASURE(1.0E-006),#369);
#244=CARTESIAN_POINT('',(-5.0,-1.19399119497682E-015,-9.5));
#245=CURVE_STYLE('',#370,POSITIVE_LENGTH_MEASURE(1.0E-006),#371);
#246=LINE('',#372,#373);
#247=CURVE_STYLE('',#374,POSITIVE_LENGTH_MEASURE(1.0E-006),#375);
#248=LINE('',#376,#377);
#249=POINT_STYLE(' ',#378,POSITIVE_LENGTH_MEASURE(1.0E-006),#379);
#250=CARTESIAN_POINT('',(9.4,3.67381906146713E-016,6.0));
#251=CURVE_STYLE('',#380,POSITIVE_LENGTH_MEASURE(1.0E-006),#381);
#252=CIRCLE('',#382,10.0);
#253=POINT_STYLE(' ',#383,POSITIVE_LENGTH_MEASURE(1.0E-006),#384);
#254=CARTESIAN_POINT('',(5.0,0.0,0.0));
#255=SURFACE_STYLE_USAGE(.BOTH.,#385);
#256=FACE_BOUND('',#386,.T.);
#257=FACE_OUTER_BOUND('',#387,.T.);
#258=PLANE('',#388);
#259=CURVE_STYLE('',#389,POSITIVE_LENGTH_MEASURE(1.0E-006),#390);
#260=CIRCLE('',#391,5.0);
#261=POINT_STYLE(' ',#392,POSITIVE_LENGTH_MEASURE(1.0E-006),#393);
#262=CARTESIAN_POINT('',(-10.0,-1.22460635382238E-015,7.49830360911069E-032));
#263=POINT_STYLE(' ',#394,POSITIVE_LENGTH_MEASURE(1.0E-006),#395);
#264=CARTESIAN_POINT('',(5.0,-5.81688018065629E-016,-9.5));
#265=CURVE_STYLE('',#396,POSITIVE_LENGTH_MEASURE(1.0E-006),#397);
#266=LINE('',#398,#399);
#267=PRODUCT_CONTEXT('',#53,'mechanical');
#268=PRODUCT_DEFINITION_FORMATION_WITH_SPECIFIED_SOURCE(' ','NONE',#152,.NOT_KNOWN.);
#269=CLOSED_SHELL('',(#81,#101,#127,#115,#113,#103,#83,#143,#67,#89,#77));
#270=CARTESIAN_POINT('',(0.0,0.0,0.0));
#271=DIRECTION('',(0.0,0.0,1.0));
#272=DIRECTION('',(1.0,0.0,0.0));
#273= (NAMED_UNIT(#161)LENGTH_UNIT()SI_UNIT(.MILLI.,.METRE.));
#274=SURFACE_SIDE_STYLE('',(#401));
#275=EDGE_LOOP('',(#402,#403,#404,#405));
#276=AXIS2_PLACEMENT_3D('',#406,#407,#408);
#277=PRE_DEFINED_MARKER('');
#278=COLOUR_RGB('',0.509803950786591,0.509803950786591,0.588235318660736);
#279=DRAUGHTING_PRE_DEFINED_CURVE_FONT('continuous');
#280=COLOUR_RGB('',0.509803950786591,0.509803950786591,0.588235318660736);
#281=AXIS2_PLACEMENT_3D('',#409,#410,#411);
#282=PRE_DEFINED_MARKER('');
#283=COLOUR_RGB('',0.509803950786591,0.509803950786591,0.588235318660736);
#284=DRAUGHTING_PRE_DEFINED_CURVE_FONT('continuous');
#285=COLOUR_RGB('',0.509803950786591,0.509803950786591,0.588235318660736);
#286=AXIS2_PLACEMENT_3D('',#412,#413,#414);
#287=SURFACE_SIDE_STYLE('',(#415));
#288=EDGE_LOOP('',(#416,#417));
#289=AXIS2_PLACEMENT_3D('',#418,#419,#420);
#290=DRAUGHTING_PRE_DEFINED_CURVE_FONT('continuous');
#291=COLOUR_RGB('',0.509803950786591,0.509803950786591,0.588235318660736);
#292=AXIS2_PLACEMENT_3D('',#421,#422,#423);
#293=SURFACE_SIDE_STYLE('',(#424));
#294=EDGE_LOOP('',(#425,#426,#427,#428));
#295=AXIS2_PLACEMENT_3D('',#429,#430,#431);
#296=SURFACE_SIDE_STYLE('',(#432));
#297=EDGE_LOOP('',(#433,#434,#435,#436));
#298=AXIS2_PLACEMENT_3D('',#437,#438,#439);
#299=PRE_DEFINED_MARKER('');
#300=COLOUR_RGB('',0.509803950786591,0.509803950786591,0.588235318660736);
#301=PRE_DEFINED_MARKER('');
#302=COLOUR_RGB('',0.509803950786591,0.509803950786591,0.588235318660736);
#303=SURFACE_SIDE_STYLE('',(#440));
#304=EDGE_LOOP('',(#441,#442,#443,#444));
#305=AXIS2_PLACEMENT_3D('',#445,#446,#447);
#306=DRAUGHTING_PRE_DEFINED_CURVE_FONT('continuous');
#307=COLOUR_RGB('',0.509803950786591,0.509803950786591,0.588235318660736);
#308=CARTESIAN_POINT('',(5.0,3.21459167878374E-016,-4.75));
#309=VECTOR('',#448,1.0);
#310=DRAUGHTING_PRE_DEFINED_CURVE_FONT('continuous');
#311=COLOUR_RGB('',0.509803950786591,0.509803950786591,0.588235318660736);
#312=AXIS2_PLACEMENT_3D('',#449,#450,#451);
#313=DRAUGHTING_PRE_DEFINED_CURVE_FONT('continuous');
#314=COLOUR_RGB('',0.509803950786591,0.509803950786591,0.588235318660736);
#315=CARTESIAN_POINT('',(-5.0,-9.03147185944003E-016,-4.75));
#316=VECTOR('',#452,1.0);
#317=DRAUGHTING_PRE_DEFINED_CURVE_FONT('continuous');
#318=COLOUR_RGB('',0.509803950786591,0.509803950786591,0.588235318660736);
#319=AXIS2_PLACEMENT_3D('',#453,#454,#455);
#320=DRAUGHTING_PRE_DEFINED_CURVE_FONT('continuous');
#321=COLOUR_RGB('',0.509803950786591,0.509803950786591,0.588235318660736);
#322=AXIS2_PLACEMENT_3D('',#456,#457,#458);
#323=SURFACE_SIDE_STYLE('',(#459));
#324=EDGE_LOOP('',(#460,#461,#462,#463));
#325=AXIS2_PLACEMENT_3D('',#464,#465,#466);
#326=SURFACE_SIDE_STYLE('',(#467));
#327=EDGE_LOOP('',(#468,#469,#470,#471));
#328=AXIS2_PLACEMENT_3D('',#472,#473,#474);
#329=DRAUGHTING_PRE_DEFINED_CURVE_FONT('continuous');
#330=COLOUR_RGB('',0.509803950786591,0.509803950786591,0.588235318660736);
#331=AXIS2_PLACEMENT_3D('',#475,#476,#477);
#332=DRAUGHTING_PRE_DEFINED_CURVE_FONT('continuous');
#333=COLOUR_RGB('',0.509803950786591,0.509803950786591,0.588235318660736);
#334=CARTESIAN_POINT('',(4.75,-7.65378971138986E-017,-10.75));
#335=VECTOR('',#478,1.0);
#336=DRAUGHTING_PRE_DEFINED_CURVE_FONT('continuous');
#337=COLOUR_RGB('',0.509803950786591,0.509803950786591,0.588235318660736);
#338=CARTESIAN_POINT('',(-9.7,-8.38855352368328E-016,5.7));
#339=VECTOR('',#479,1.0);
#340=DRAUGHTING_PRE_DEFINED_CURVE_FONT('continuous');
#341=COLOUR_RGB('',0.509803950786591,0.509803950786591,0.588235318660736);
#342=AXIS2_PLACEMENT_3D('',#480,#481,#482);
#343=SURFACE_SIDE_STYLE('',(#483));
#344=EDGE_LOOP('',(#484,#485));
#345=AXIS2_PLACEMENT_3D('',#486,#487,#488);
#346=SURFACE_SIDE_STYLE('',(#489));
#347=EDGE_LOOP('',(#490,#491,#492,#493));
#348=AXIS2_PLACEMENT_3D('',#494,#495,#496);
#349=PRE_DEFINED_MARKER('');
#350=COLOUR_RGB('',0.509803950786591,0.509803950786591,0.588235318660736);
#351=DRAUGHTING_PRE_DEFINED_CURVE_FONT('continuous');
#352=COLOUR_RGB('',0.509803950786591,0.509803950786591,0.588235318660736);
#353=AXIS2_PLACEMENT_3D('',#497,#498,#499);
#354=PRE_DEFINED_MARKER('');
#355=COLOUR_RGB('',0.509803950786591,0.509803950786591,0.588235318660736);
#356=DRAUGHTING_PRE_DEFINED_CURVE_FONT('continuous');
#357=COLOUR_RGB('',0.509803950786591,0.509803950786591,0.588235318660736);
#358=CARTESIAN_POINT('',(10.0,1.3899282115884E-015,2.7));
#359=VECTOR('',#500,1.0);
#360=DRAUGHTING_PRE_DEFINED_CURVE_FONT('continuous');
#361=COLOUR_RGB('',0.509803950786591,0.509803950786591,0.588235318660736);
#362=AXIS2_PLACEMENT_3D('',#501,#502,#503);
#363=SURFACE_SIDE_STYLE('',(#504));
#364=EDGE_LOOP('',(#505,#506,#507,#508));
#365=AXIS2_PLACEMENT_3D('',#509,#510,#511);
#366=PRE_DEFINED_MARKER('');
#367=COLOUR_RGB('',0.509803950786591,0.509803950786591,0.588235318660736);
#368=PRE_DEFINED_MARKER('');
#369=COLOUR_RGB('',0.509803950786591,0.509803950786591,0.588235318660736);
#370=DRAUGHTING_PRE_DEFINED_CURVE_FONT('continuous');
#371=COLOUR_RGB('',0.509803950786591,0.509803950786591,0.588235318660736);
#372=CARTESIAN_POINT('',(-4.75,-1.23991393324516E-015,-10.75));
#373=VECTOR('',#512,1.0);
#374=DRAUGHTING_PRE_DEFINED_CURVE_FONT('continuous');
#375=COLOUR_RGB('',0.509803950786591,0.509803950786591,0.588235318660736);
#376=CARTESIAN_POINT('',(9.7,1.53688097404708E-015,5.7));
#377=VECTOR('',#513,1.0);
#378=PRE_DEFINED_MARKER('');
#379=COLOUR_RGB('',0.509803950786591,0.509803950786591,0.588235318660736);
#380=DRAUGHTING_PRE_DEFINED_CURVE_FONT('continuous');
#381=COLOUR_RGB('',0.509803950786591,0.509803950786591,0.588235318660736);
#382=AXIS2_PLACEMENT_3D('',#514,#515,#516);
#383=PRE_DEFINED_MARKER('');
#384=COLOUR_RGB('',0.509803950786591,0.509803950786591,0.588235318660736);
#385=SURFACE_SIDE_STYLE('',(#517));
#386=EDGE_LOOP('',(#518,#519));
#387=EDGE_LOOP('',(#520,#521));
#388=AXIS2_PLACEMENT_3D('',#522,#523,#524);
#389=DRAUGHTING_PRE_DEFINED_CURVE_FONT('continuous');
#390=COLOUR_RGB('',0.509803950786591,0.509803950786591,0.588235318660736);
#391=AXIS2_PLACEMENT_3D('',#525,#526,#527);
#392=PRE_DEFINED_MARKER('');
#393=COLOUR_RGB('',0.509803950786591,0.509803950786591,0.588235318660736);
#394=PRE_DEFINED_MARKER('');
#395=COLOUR_RGB('',0.509803950786591,0.509803950786591,0.588235318660736);
#396=DRAUGHTING_PRE_DEFINED_CURVE_FONT('continuous');
#397=COLOUR_RGB('',0.509803950786591,0.509803950786591,0.588235318660736);
#398=CARTESIAN_POINT('',(-10.0,-1.05928449605636E-015,2.7));
#399=VECTOR('',#528,1.0);
#401=SURFACE_STYLE_FILL_AREA(#529);
#402=ORIENTED_EDGE('',*,*,#91,.T.);
#403=ORIENTED_EDGE('',*,*,#125,.F.);
#404=ORIENTED_EDGE('',*,*,#95,.T.);
#405=ORIENTED_EDGE('',*,*,#75,.T.);
#406=CARTESIAN_POINT('',(0.0,-2.90844009032815E-016,-4.75));
#407=DIRECTION('',(-0.0,6.12303176911189E-017,1.0));
#408=DIRECTION('',(1.0,0.0,0.0));
#409=CARTESIAN_POINT('',(0.0,-7.34763812293426E-016,-12.0));
#410=DIRECTION('',(0.0,-6.12303176911189E-017,-1.0));
#411=DIRECTION('',(1.0,0.0,0.0));
#412=CARTESIAN_POINT('',(0.0,0.0,0.0));
#413=DIRECTION('',(0.0,-6.12303176911189E-017,-1.0));
#414=DIRECTION('',(1.0,0.0,0.0));
#415=SURFACE_STYLE_FILL_AREA(#530);
#416=ORIENTED_EDGE('',*,*,#71,.T.);
#417=ORIENTED_EDGE('',*,*,#119,.T.);
#418=CARTESIAN_POINT('',(2.25,-7.34763812293426E-016,-12.0));
#419=DIRECTION('',(0.0,-6.12303176911189E-017,-1.0));
#420=DIRECTION('',(1.0,0.0,0.0));
#421=CARTESIAN_POINT('',(0.0,0.0,0.0));
#422=DIRECTION('',(0.0,-6.12303176911189E-017,-1.0));
#423=DIRECTION('',(1.0,0.0,0.0));
#424=SURFACE_STYLE_FILL_AREA(#531);
#425=ORIENTED_EDGE('',*,*,#107,.F.);
#426=ORIENTED_EDGE('',*,*,#145,.T.);
#427=ORIENTED_EDGE('',*,*,#133,.F.);
#428=ORIENTED_EDGE('',*,*,#71,.F.);
#429=CARTESIAN_POINT('',(0.0,-6.58225915179528E-016,-10.75));
#430=DIRECTION('',(-0.0,6.12303176911189E-017,1.0));
#431=DIRECTION('',(1.0,0.0,0.0));
#432=SURFACE_STYLE_FILL_AREA(#532);
#433=ORIENTED_EDGE('',*,*,#123,.T.);
#434=ORIENTED_EDGE('',*,*,#97,.F.);
#435=ORIENTED_EDGE('',*,*,#151,.T.);
#436=ORIENTED_EDGE('',*,*,#99,.T.);
#437=CARTESIAN_POINT('',(0.0,1.65321857766021E-016,2.7));
#438=DIRECTION('',(-0.0,6.12303176911189E-017,1.0));
#439=DIRECTION('',(1.0,0.0,0.0));
#440=SURFACE_STYLE_FILL_AREA(#533);
#441=ORIENTED_EDGE('',*,*,#107,.T.);
#442=ORIENTED_EDGE('',*,*,#119,.F.);
#443=ORIENTED_EDGE('',*,*,#133,.T.);
#444=ORIENTED_EDGE('',*,*,#125,.T.);
#445=CARTESIAN_POINT('',(0.0,-6.58225915179528E-016,-10.75));
#446=DIRECTION('',(-0.0,6.12303176911189E-017,1.0));
#447=DIRECTION('',(1.0,0.0,0.0));
#448=DIRECTION('',(0.0,-6.12303176911189E-017,-1.0));
#449=CARTESIAN_POINT('',(0.0,3.30643715532042E-016,5.4));
#450=DIRECTION('',(0.0,-6.12303176911189E-017,-1.0));
#451=DIRECTION('',(1.0,0.0,0.0));
#452=DIRECTION('',(-0.0,6.12303176911189E-017,1.0));
#453=CARTESIAN_POINT('',(0.0,0.0,0.0));
#454=DIRECTION('',(0.0,-6.12303176911189E-017,-1.0));
#455=DIRECTION('',(1.0,0.0,0.0));
#456=CARTESIAN_POINT('',(0.0,3.30643715532042E-016,5.4));
#457=DIRECTION('',(0.0,-6.12303176911189E-017,-1.0));
#458=DIRECTION('',(1.0,0.0,0.0));
#459=SURFACE_STYLE_FILL_AREA(#534);
#460=ORIENTED_EDGE('',*,*,#91,.F.);
#461=ORIENTED_EDGE('',*,*,#79,.T.);
#462=ORIENTED_EDGE('',*,*,#95,.F.);
#463=ORIENTED_EDGE('',*,*,#145,.F.);
#464=CARTESIAN_POINT('',(0.0,-2.90844009032815E-016,-4.75));
#465=DIRECTION('',(-0.0,6.12303176911189E-017,1.0));
#466=DIRECTION('',(1.0,0.0,0.0));
#467=SURFACE_STYLE_FILL_AREA(#535);
#468=ORIENTED_EDGE('',*,*,#135,.T.);
#469=ORIENTED_EDGE('',*,*,#99,.F.);
#470=ORIENTED_EDGE('',*,*,#109,.T.);
#471=ORIENTED_EDGE('',*,*,#105,.T.);
#472=CARTESIAN_POINT('',(0.0,3.49012810839378E-016,5.7));
#473=DIRECTION('',(0.0,-6.12303176911189E-017,-1.0));
#474=DIRECTION('',(1.0,0.0,0.0));
#475=CARTESIAN_POINT('',(0.0,3.67381906146713E-016,6.0));
#476=DIRECTION('',(0.0,-6.12303176911189E-017,-1.0));
#477=DIRECTION('',(1.0,0.0,0.0));
#478=DIRECTION('',(-0.196116135138184,-8.40577728120578E-017,-0.98058067569092));
#479=DIRECTION('',(0.707106781186547,1.2988911856079E-016,0.707106781186548));
#480=CARTESIAN_POINT('',(0.0,3.67381906146713E-016,6.0));
#481=DIRECTION('',(0.0,-6.12303176911189E-017,-1.0));
#482=DIRECTION('',(1.0,0.0,0.0));
#483=SURFACE_STYLE_FILL_AREA(#536);
#484=ORIENTED_EDGE('',*,*,#111,.F.);
#485=ORIENTED_EDGE('',*,*,#105,.F.);
#486=CARTESIAN_POINT('',(4.7,3.67381906146713E-016,6.0));
#487=DIRECTION('',(0.0,6.12303176911189E-017,1.0));
#488=DIRECTION('',(-1.0,0.0,0.0));
#489=SURFACE_STYLE_FILL_AREA(#537);
#490=ORIENTED_EDGE('',*,*,#135,.F.);
#491=ORIENTED_EDGE('',*,*,#111,.T.);
#492=ORIENTED_EDGE('',*,*,#109,.F.);
#493=ORIENTED_EDGE('',*,*,#93,.F.);
#494=CARTESIAN_POINT('',(0.0,3.49012810839378E-016,5.7));
#495=DIRECTION('',(0.0,-6.12303176911189E-017,-1.0));
#496=DIRECTION('',(1.0,0.0,0.0));
#497=CARTESIAN_POINT('',(0.0,-7.34763812293426E-016,-12.0));
#498=DIRECTION('',(0.0,-6.12303176911189E-017,-1.0));
#499=DIRECTION('',(1.0,0.0,0.0));
#500=DIRECTION('',(0.0,-6.12303176911189E-017,-1.0));
#501=CARTESIAN_POINT('',(0.0,-5.81688018065629E-016,-9.5));
#502=DIRECTION('',(0.0,-6.12303176911189E-017,-1.0));
#503=DIRECTION('',(1.0,0.0,0.0));
#504=SURFACE_STYLE_FILL_AREA(#538);
#505=ORIENTED_EDGE('',*,*,#123,.F.);
#506=ORIENTED_EDGE('',*,*,#93,.T.);
#507=ORIENTED_EDGE('',*,*,#151,.F.);
#508=ORIENTED_EDGE('',*,*,#139,.F.);
#509=CARTESIAN_POINT('',(0.0,1.65321857766021E-016,2.7));
#510=DIRECTION('',(-0.0,6.12303176911189E-017,1.0));
#511=DIRECTION('',(1.0,0.0,0.0));
#512=DIRECTION('',(-0.196116135138184,3.60247597765962E-017,0.98058067569092));
#513=DIRECTION('',(0.707106781186547,4.32963728535968E-017,-0.707106781186548));
#514=CARTESIAN_POINT('',(0.0,0.0,0.0));
#515=DIRECTION('',(0.0,-6.12303176911189E-017,-1.0));
#516=DIRECTION('',(1.0,0.0,0.0));
#517=SURFACE_STYLE_FILL_AREA(#539);
#518=ORIENTED_EDGE('',*,*,#79,.F.);
#519=ORIENTED_EDGE('',*,*,#75,.F.);
#520=ORIENTED_EDGE('',*,*,#139,.T.);
#521=ORIENTED_EDGE('',*,*,#97,.T.);
#522=CARTESIAN_POINT('',(7.5,0.0,0.0));
#523=DIRECTION('',(0.0,-6.12303176911189E-017,-1.0));
#524=DIRECTION('',(1.0,0.0,0.0));
#525=CARTESIAN_POINT('',(0.0,-5.81688018065629E-016,-9.5));
#526=DIRECTION('',(0.0,-6.12303176911189E-017,-1.0));
#527=DIRECTION('',(1.0,0.0,0.0));
#528=DIRECTION('',(-0.0,6.12303176911189E-017,1.0));
#529=FILL_AREA_STYLE('',(#540));
#530=FILL_AREA_STYLE('',(#541));
#531=FILL_AREA_STYLE('',(#542));
#532=FILL_AREA_STYLE('',(#543));
#533=FILL_AREA_STYLE('',(#544));
#534=FILL_AREA_STYLE('',(#545));
#535=FILL_AREA_STYLE('',(#546));
#536=FILL_AREA_STYLE('',(#547));
#537=FILL_AREA_STYLE('',(#548));
#538=FILL_AREA_STYLE('',(#549));
#539=FILL_AREA_STYLE('',(#550));
#540=FILL_AREA_STYLE_COLOUR('',#551);
#541=FILL_AREA_STYLE_COLOUR('',#552);
#542=FILL_AREA_STYLE_COLOUR('',#553);
#543=FILL_AREA_STYLE_COLOUR('',#554);
#544=FILL_AREA_STYLE_COLOUR('',#555);
#545=FILL_AREA_STYLE_COLOUR('',#556);
#546=FILL_AREA_STYLE_COLOUR('',#557);
#547=FILL_AREA_STYLE_COLOUR('',#558);
#548=FILL_AREA_STYLE_COLOUR('',#559);
#549=FILL_AREA_STYLE_COLOUR('',#560);
#550=FILL_AREA_STYLE_COLOUR('',#561);
#551=COLOUR_RGB('',0.509803950786591,0.509803950786591,0.588235318660736);
#552=COLOUR_RGB('',0.509803950786591,0.509803950786591,0.588235318660736);
#553=COLOUR_RGB('',0.509803950786591,0.509803950786591,0.588235318660736);
#554=COLOUR_RGB('',0.509803950786591,0.509803950786591,0.588235318660736);
#555=COLOUR_RGB('',0.509803950786591,0.509803950786591,0.588235318660736);
#556=COLOUR_RGB('',0.509803950786591,0.509803950786591,0.588235318660736);
#557=COLOUR_RGB('',0.509803950786591,0.509803950786591,0.588235318660736);
#558=COLOUR_RGB('',0.509803950786591,0.509803950786591,0.588235318660736);
#559=COLOUR_RGB('',0.509803950786591,0.509803950786591,0.588235318660736);
#560=COLOUR_RGB('',0.509803950786591,0.509803950786591,0.588235318660736);
#561=COLOUR_RGB('',0.509803950786591,0.509803950786591,0.588235318660736);
ENDSEC;
END-ISO-10303-21;
