ISO-10303-21;
HEADER;
FILE_DESCRIPTION(('STEP AP214'),'1');
FILE_NAME(' ','  ',('TraceParts'),('TraceParts S.A.'),'XStep 1.0',' ',' ');
FILE_SCHEMA(('automotive_design'));
ENDSEC;
DATA;
#1=MECHANICAL_DESIGN_GEOMETRIC_PRESENTATION_REPRESENTATION(' ',(#10,#11,#12,#13,#14,#15,#16,#17,#18,#19,#20,#21,#22,#23,#24,#25,#26,#27,#28,#29,#30,#31,#32,#33,#34,#35,#36,#37,#38,#39,#40,#41,#42,#43,#44,#45,#46,#47,#48,#49,#50,#51,#52),#6);
#2=PRODUCT_DEFINITION_CONTEXT('',#53,'design');
#3=APPLICATION_PROTOCOL_DEFINITION('INTERNATIONAL STANDARD','automotive_design',1994,#53);
#4=PRODUCT_CATEGORY_RELATIONSHIP('NONE','NONE',#54,#55);
#5=SHAPE_DEFINITION_REPRESENTATION(#56,#57);
#6= (GEOMETRIC_REPRESENTATION_CONTEXT(3)GLOBAL_UNCERTAINTY_ASSIGNED_CONTEXT((#60))GLOBAL_UNIT_ASSIGNED_CONTEXT((#62,#63,#64))REPRESENTATION_CONTEXT('NONE','WORKSPACE'));
#10=STYLED_ITEM('',(#66),#67);
#11=STYLED_ITEM('',(#68),#69);
#12=STYLED_ITEM('',(#70),#71);
#13=STYLED_ITEM('',(#72),#73);
#14=STYLED_ITEM('',(#74),#75);
#15=STYLED_ITEM('',(#76),#77);
#16=STYLED_ITEM('',(#78),#79);
#17=STYLED_ITEM('',(#80),#81);
#18=STYLED_ITEM('',(#82),#83);
#19=STYLED_ITEM('',(#84),#85);
#20=STYLED_ITEM('',(#86),#87);
#21=STYLED_ITEM('',(#88),#89);
#22=STYLED_ITEM('',(#90),#91);
#23=STYLED_ITEM('',(#92),#93);
#24=STYLED_ITEM('',(#94),#95);
#25=STYLED_ITEM('',(#96),#97);
#26=STYLED_ITEM('',(#98),#99);
#27=STYLED_ITEM('',(#100),#101);
#28=STYLED_ITEM('',(#102),#103);
#29=STYLED_ITEM('',(#104),#105);
#30=STYLED_ITEM('',(#106),#107);
#31=STYLED_ITEM('',(#108),#109);
#32=STYLED_ITEM('',(#110),#111);
#33=STYLED_ITEM('',(#112),#113);
#34=STYLED_ITEM('',(#114),#115);
#35=STYLED_ITEM('',(#116),#117);
#36=STYLED_ITEM('',(#118),#119);
#37=STYLED_ITEM('',(#120),#121);
#38=STYLED_ITEM('',(#122),#123);
#39=STYLED_ITEM('',(#124),#125);
#40=STYLED_ITEM('',(#126),#127);
#41=STYLED_ITEM('',(#128),#129);
#42=STYLED_ITEM('',(#130),#131);
#43=STYLED_ITEM('',(#132),#133);
#44=STYLED_ITEM('',(#134),#135);
#45=STYLED_ITEM('',(#136),#137);
#46=STYLED_ITEM('',(#138),#139);
#47=STYLED_ITEM('',(#140),#141);
#48=STYLED_ITEM('',(#142),#143);
#49=STYLED_ITEM('',(#144),#145);
#50=STYLED_ITEM('',(#146),#147);
#51=STYLED_ITEM('',(#148),#149);
#52=STYLED_ITEM('',(#150),#151);
#53=APPLICATION_CONTEXT(' ');
#54=PRODUCT_CATEGORY('part','NONE');
#55=PRODUCT_RELATED_PRODUCT_CATEGORY('detail',' ',(#152));
#56=PRODUCT_DEFINITION_SHAPE('NONE','NONE',#153);
#57=ADVANCED_BREP_SHAPE_REPRESENTATION('1',(#154,#155),#6);
#60=UNCERTAINTY_MEASURE_WITH_UNIT(LENGTH_MEASURE(1.0E-006),#62,'','');
#62= (CONVERSION_BASED_UNIT('MILLIMETRE',#158)LENGTH_UNIT()NAMED_UNIT(#161));
#63= (NAMED_UNIT(#163)PLANE_ANGLE_UNIT()SI_UNIT($,.RADIAN.));
#64= (NAMED_UNIT(#163)SOLID_ANGLE_UNIT()SI_UNIT($,.STERADIAN.));
#66=PRESENTATION_STYLE_ASSIGNMENT((#169));
#67=ADVANCED_FACE('',(#170),#171,.T.);
#68=PRESENTATION_STYLE_ASSIGNMENT((#172));
#69=EDGE_CURVE('',#117,#137,#173,.T.);
#70=PRESENTATION_STYLE_ASSIGNMENT((#174));
#71=ADVANCED_FACE('',(#175),#176,.T.);
#72=PRESENTATION_STYLE_ASSIGNMENT((#177));
#73=EDGE_CURVE('',#147,#131,#178,.T.);
#74=PRESENTATION_STYLE_ASSIGNMENT((#179));
#75=EDGE_CURVE('',#137,#117,#180,.T.);
#76=PRESENTATION_STYLE_ASSIGNMENT((#181));
#77=ADVANCED_FACE('',(#182),#183,.T.);
#78=PRESENTATION_STYLE_ASSIGNMENT((#184));
#79=EDGE_CURVE('',#101,#139,#185,.T.);
#80=PRESENTATION_STYLE_ASSIGNMENT((#186));
#81=ADVANCED_FACE('',(#187),#188,.T.);
#82=PRESENTATION_STYLE_ASSIGNMENT((#189));
#83=EDGE_CURVE('',#121,#119,#190,.T.);
#84=PRESENTATION_STYLE_ASSIGNMENT((#191));
#85=ADVANCED_FACE('',(#192),#193,.T.);
#86=PRESENTATION_STYLE_ASSIGNMENT((#194));
#87=ADVANCED_FACE('',(#195),#196,.T.);
#88=PRESENTATION_STYLE_ASSIGNMENT((#197));
#89=EDGE_CURVE('',#123,#129,#198,.T.);
#90=PRESENTATION_STYLE_ASSIGNMENT((#199));
#91=EDGE_CURVE('',#149,#95,#200,.T.);
#92=PRESENTATION_STYLE_ASSIGNMENT((#201));
#93=EDGE_CURVE('',#131,#117,#202,.T.);
#94=PRESENTATION_STYLE_ASSIGNMENT((#203));
#95=VERTEX_POINT('',#204);
#96=PRESENTATION_STYLE_ASSIGNMENT((#205));
#97=EDGE_CURVE('',#117,#95,#206,.T.);
#98=PRESENTATION_STYLE_ASSIGNMENT((#207));
#99=EDGE_CURVE('',#119,#121,#208,.T.);
#100=PRESENTATION_STYLE_ASSIGNMENT((#209));
#101=VERTEX_POINT('',#210);
#102=PRESENTATION_STYLE_ASSIGNMENT((#211));
#103=EDGE_CURVE('',#137,#147,#212,.T.);
#104=PRESENTATION_STYLE_ASSIGNMENT((#213));
#105=EDGE_CURVE('',#131,#147,#214,.T.);
#106=PRESENTATION_STYLE_ASSIGNMENT((#215));
#107=ADVANCED_FACE('',(#216),#217,.T.);
#108=PRESENTATION_STYLE_ASSIGNMENT((#218));
#109=EDGE_CURVE('',#129,#123,#219,.T.);
#110=PRESENTATION_STYLE_ASSIGNMENT((#220));
#111=EDGE_CURVE('',#121,#123,#221,.T.);
#112=PRESENTATION_STYLE_ASSIGNMENT((#222));
#113=ADVANCED_FACE('',(#223),#224,.T.);
#114=PRESENTATION_STYLE_ASSIGNMENT((#225));
#115=ADVANCED_FACE('',(#226),#227,.T.);
#116=PRESENTATION_STYLE_ASSIGNMENT((#228));
#117=VERTEX_POINT('',#229);
#118=PRESENTATION_STYLE_ASSIGNMENT((#230));
#119=VERTEX_POINT('',#231);
#120=PRESENTATION_STYLE_ASSIGNMENT((#232));
#121=VERTEX_POINT('',#233);
#122=PRESENTATION_STYLE_ASSIGNMENT((#234));
#123=VERTEX_POINT('',#235);
#124=PRESENTATION_STYLE_ASSIGNMENT((#236));
#125=EDGE_CURVE('',#129,#119,#237,.T.);
#126=PRESENTATION_STYLE_ASSIGNMENT((#238));
#127=ADVANCED_FACE('',(#239,#240),#241,.T.);
#128=PRESENTATION_STYLE_ASSIGNMENT((#242));
#129=VERTEX_POINT('',#243);
#130=PRESENTATION_STYLE_ASSIGNMENT((#244));
#131=VERTEX_POINT('',#245);
#132=PRESENTATION_STYLE_ASSIGNMENT((#246));
#133=EDGE_CURVE('',#149,#137,#247,.T.);
#134=PRESENTATION_STYLE_ASSIGNMENT((#248));
#135=EDGE_CURVE('',#95,#149,#249,.T.);
#136=PRESENTATION_STYLE_ASSIGNMENT((#250));
#137=VERTEX_POINT('',#251);
#138=PRESENTATION_STYLE_ASSIGNMENT((#252));
#139=VERTEX_POINT('',#253);
#140=PRESENTATION_STYLE_ASSIGNMENT((#254));
#141=EDGE_CURVE('',#119,#139,#255,.T.);
#142=PRESENTATION_STYLE_ASSIGNMENT((#256));
#143=EDGE_CURVE('',#139,#101,#257,.T.);
#144=PRESENTATION_STYLE_ASSIGNMENT((#258));
#145=ADVANCED_FACE('',(#259),#260,.T.);
#146=PRESENTATION_STYLE_ASSIGNMENT((#261));
#147=VERTEX_POINT('',#262);
#148=PRESENTATION_STYLE_ASSIGNMENT((#263));
#149=VERTEX_POINT('',#264);
#150=PRESENTATION_STYLE_ASSIGNMENT((#265));
#151=EDGE_CURVE('',#101,#121,#266,.T.);
#152=PRODUCT('1','1','PART-1-DESC',(#267));
#153=PRODUCT_DEFINITION('NONE','NONE',#268,#2);
#154=MANIFOLD_SOLID_BREP('1',#269);
#155=AXIS2_PLACEMENT_3D('',#270,#271,#272);
#158=LENGTH_MEASURE_WITH_UNIT(LENGTH_MEASURE(1.0),#273);
#161=DIMENSIONAL_EXPONENTS(1.0,0.0,0.0,0.0,0.0,0.0,0.0);
#163=DIMENSIONAL_EXPONENTS(0.0,0.0,0.0,0.0,0.0,0.0,0.0);
#169=SURFACE_STYLE_USAGE(.BOTH.,#274);
#170=FACE_OUTER_BOUND('',#275,.T.);
#171=CONICAL_SURFACE('',#276,2.85,0.197395559849881);
#172=CURVE_STYLE('',#277,POSITIVE_LENGTH_MEASURE(1.0E-006),#278);
#173=CIRCLE('',#279,3.0);
#174=SURFACE_STYLE_USAGE(.BOTH.,#280);
#175=FACE_OUTER_BOUND('',#281,.T.);
#176=PLANE('',#282);
#177=CURVE_STYLE('',#283,POSITIVE_LENGTH_MEASURE(1.0E-006),#284);
#178=CIRCLE('',#285,3.0);
#179=CURVE_STYLE('',#286,POSITIVE_LENGTH_MEASURE(1.0E-006),#287);
#180=CIRCLE('',#288,3.0);
#181=SURFACE_STYLE_USAGE(.BOTH.,#289);
#182=FACE_OUTER_BOUND('',#290,.T.);
#183=CYLINDRICAL_SURFACE('',#291,6.0);
#184=CURVE_STYLE('',#292,POSITIVE_LENGTH_MEASURE(1.0E-006),#293);
#185=CIRCLE('',#294,6.0);
#186=SURFACE_STYLE_USAGE(.BOTH.,#295);
#187=FACE_OUTER_BOUND('',#296,.T.);
#188=PLANE('',#297);
#189=CURVE_STYLE('',#298,POSITIVE_LENGTH_MEASURE(1.0E-006),#299);
#190=CIRCLE('',#300,6.0);
#191=SURFACE_STYLE_USAGE(.BOTH.,#301);
#192=FACE_OUTER_BOUND('',#302,.T.);
#193=CONICAL_SURFACE('',#303,2.85,0.197395559849881);
#194=SURFACE_STYLE_USAGE(.BOTH.,#304);
#195=FACE_OUTER_BOUND('',#305,.T.);
#196=CYLINDRICAL_SURFACE('',#306,6.0);
#197=CURVE_STYLE('',#307,POSITIVE_LENGTH_MEASURE(1.0E-006),#308);
#198=CIRCLE('',#309,5.4);
#199=CURVE_STYLE('',#310,POSITIVE_LENGTH_MEASURE(1.0E-006),#311);
#200=CIRCLE('',#312,2.7);
#201=CURVE_STYLE('',#313,POSITIVE_LENGTH_MEASURE(1.0E-006),#314);
#202=LINE('',#315,#316);
#203=POINT_STYLE(' ',#317,POSITIVE_LENGTH_MEASURE(1.0E-006),#318);
#204=CARTESIAN_POINT('',(2.7,-6.12303176911189E-016,-10.0));
#205=CURVE_STYLE('',#319,POSITIVE_LENGTH_MEASURE(1.0E-006),#320);
#206=LINE('',#321,#322);
#207=CURVE_STYLE('',#323,POSITIVE_LENGTH_MEASURE(1.0E-006),#324);
#208=CIRCLE('',#325,6.0);
#209=POINT_STYLE(' ',#326,POSITIVE_LENGTH_MEASURE(1.0E-006),#327);
#210=CARTESIAN_POINT('',(-6.0,-7.34763812293426E-016,4.49898216546641E-032));
#211=CURVE_STYLE('',#328,POSITIVE_LENGTH_MEASURE(1.0E-006),#329);
#212=LINE('',#330,#331);
#213=CURVE_STYLE('',#332,POSITIVE_LENGTH_MEASURE(1.0E-006),#333);
#214=CIRCLE('',#334,3.0);
#215=SURFACE_STYLE_USAGE(.BOTH.,#335);
#216=FACE_OUTER_BOUND('',#336,.T.);
#217=CONICAL_SURFACE('',#337,5.7,0.785398163397448);
#218=CURVE_STYLE('',#338,POSITIVE_LENGTH_MEASURE(1.0E-006),#339);
#219=CIRCLE('',#340,5.4);
#220=CURVE_STYLE('',#341,POSITIVE_LENGTH_MEASURE(1.0E-006),#342);
#221=LINE('',#343,#344);
#222=SURFACE_STYLE_USAGE(.BOTH.,#345);
#223=FACE_OUTER_BOUND('',#346,.T.);
#224=CYLINDRICAL_SURFACE('',#347,3.0);
#225=SURFACE_STYLE_USAGE(.BOTH.,#348);
#226=FACE_OUTER_BOUND('',#349,.T.);
#227=CONICAL_SURFACE('',#350,5.7,0.785398163397448);
#228=POINT_STYLE(' ',#351,POSITIVE_LENGTH_MEASURE(1.0E-006),#352);
#229=CARTESIAN_POINT('',(3.0,-5.2045770037451E-016,-8.5));
#230=POINT_STYLE(' ',#353,POSITIVE_LENGTH_MEASURE(1.0E-006),#354);
#231=CARTESIAN_POINT('',(6.0,3.30643715532042E-016,5.4));
#232=POINT_STYLE(' ',#355,POSITIVE_LENGTH_MEASURE(1.0E-006),#356);
#233=CARTESIAN_POINT('',(-6.0,-4.04120096761384E-016,5.4));
#234=POINT_STYLE(' ',#357,POSITIVE_LENGTH_MEASURE(1.0E-006),#358);
#235=CARTESIAN_POINT('',(-5.4,-2.93905524917371E-016,6.0));
#236=CURVE_STYLE('',#359,POSITIVE_LENGTH_MEASURE(1.0E-006),#360);
#237=LINE('',#361,#362);
#238=SURFACE_STYLE_USAGE(.BOTH.,#363);
#239=FACE_BOUND('',#364,.T.);
#240=FACE_OUTER_BOUND('',#365,.T.);
#241=PLANE('',#366);
#242=POINT_STYLE(' ',#367,POSITIVE_LENGTH_MEASURE(1.0E-006),#368);
#243=CARTESIAN_POINT('',(5.4,3.67381906146713E-016,6.0));
#244=POINT_STYLE(' ',#369,POSITIVE_LENGTH_MEASURE(1.0E-006),#370);
#245=CARTESIAN_POINT('',(3.0,0.0,0.0));
#246=CURVE_STYLE('',#371,POSITIVE_LENGTH_MEASURE(1.0E-006),#372);
#247=LINE('',#373,#374);
#248=CURVE_STYLE('',#375,POSITIVE_LENGTH_MEASURE(1.0E-006),#376);
#249=CIRCLE('',#377,2.7);
#250=POINT_STYLE(' ',#378,POSITIVE_LENGTH_MEASURE(1.0E-006),#379);
#251=CARTESIAN_POINT('',(-3.0,-8.87839606521224E-016,-8.5));
#252=POINT_STYLE(' ',#380,POSITIVE_LENGTH_MEASURE(1.0E-006),#381);
#253=CARTESIAN_POINT('',(6.0,0.0,0.0));
#254=CURVE_STYLE('',#382,POSITIVE_LENGTH_MEASURE(1.0E-006),#383);
#255=LINE('',#384,#385);
#256=CURVE_STYLE('',#386,POSITIVE_LENGTH_MEASURE(1.0E-006),#387);
#257=CIRCLE('',#388,6.0);
#258=SURFACE_STYLE_USAGE(.BOTH.,#389);
#259=FACE_OUTER_BOUND('',#390,.T.);
#260=CYLINDRICAL_SURFACE('',#391,3.0);
#261=POINT_STYLE(' ',#392,POSITIVE_LENGTH_MEASURE(1.0E-006),#393);
#262=CARTESIAN_POINT('',(-3.0,-3.67381906146713E-016,2.24949108273321E-032));
#263=POINT_STYLE(' ',#394,POSITIVE_LENGTH_MEASURE(1.0E-006),#395);
#264=CARTESIAN_POINT('',(-2.7,-9.42946892443231E-016,-10.0));
#265=CURVE_STYLE('',#396,POSITIVE_LENGTH_MEASURE(1.0E-006),#397);
#266=LINE('',#398,#399);
#267=PRODUCT_CONTEXT('',#53,'mechanical');
#268=PRODUCT_DEFINITION_FORMATION_WITH_SPECIFIED_SOURCE(' ','NONE',#152,.NOT_KNOWN.);
#269=CLOSED_SHELL('',(#67,#113,#77,#107,#81,#115,#87,#127,#145,#85,#71));
#270=CARTESIAN_POINT('',(0.0,0.0,0.0));
#271=DIRECTION('',(0.0,0.0,1.0));
#272=DIRECTION('',(1.0,0.0,0.0));
#273= (NAMED_UNIT(#161)LENGTH_UNIT()SI_UNIT(.MILLI.,.METRE.));
#274=SURFACE_SIDE_STYLE('',(#401));
#275=EDGE_LOOP('',(#402,#403,#404,#405));
#276=AXIS2_PLACEMENT_3D('',#406,#407,#408);
#277=DRAUGHTING_PRE_DEFINED_CURVE_FONT('continuous');
#278=COLOUR_RGB('',0.509803950786591,0.509803950786591,0.588235318660736);
#279=AXIS2_PLACEMENT_3D('',#409,#410,#411);
#280=SURFACE_SIDE_STYLE('',(#412));
#281=EDGE_LOOP('',(#413,#414));
#282=AXIS2_PLACEMENT_3D('',#415,#416,#417);
#283=DRAUGHTING_PRE_DEFINED_CURVE_FONT('continuous');
#284=COLOUR_RGB('',0.509803950786591,0.509803950786591,0.588235318660736);
#285=AXIS2_PLACEMENT_3D('',#418,#419,#420);
#286=DRAUGHTING_PRE_DEFINED_CURVE_FONT('continuous');
#287=COLOUR_RGB('',0.509803950786591,0.509803950786591,0.588235318660736);
#288=AXIS2_PLACEMENT_3D('',#421,#422,#423);
#289=SURFACE_SIDE_STYLE('',(#424));
#290=EDGE_LOOP('',(#425,#426,#427,#428));
#291=AXIS2_PLACEMENT_3D('',#429,#430,#431);
#292=DRAUGHTING_PRE_DEFINED_CURVE_FONT('continuous');
#293=COLOUR_RGB('',0.509803950786591,0.509803950786591,0.588235318660736);
#294=AXIS2_PLACEMENT_3D('',#432,#433,#434);
#295=SURFACE_SIDE_STYLE('',(#435));
#296=EDGE_LOOP('',(#436,#437));
#297=AXIS2_PLACEMENT_3D('',#438,#439,#440);
#298=DRAUGHTING_PRE_DEFINED_CURVE_FONT('continuous');
#299=COLOUR_RGB('',0.509803950786591,0.509803950786591,0.588235318660736);
#300=AXIS2_PLACEMENT_3D('',#441,#442,#443);
#301=SURFACE_SIDE_STYLE('',(#444));
#302=EDGE_LOOP('',(#445,#446,#447,#448));
#303=AXIS2_PLACEMENT_3D('',#449,#450,#451);
#304=SURFACE_SIDE_STYLE('',(#452));
#305=EDGE_LOOP('',(#453,#454,#455,#456));
#306=AXIS2_PLACEMENT_3D('',#457,#458,#459);
#307=DRAUGHTING_PRE_DEFINED_CURVE_FONT('continuous');
#308=COLOUR_RGB('',0.509803950786591,0.509803950786591,0.588235318660736);
#309=AXIS2_PLACEMENT_3D('',#460,#461,#462);
#310=DRAUGHTING_PRE_DEFINED_CURVE_FONT('continuous');
#311=COLOUR_RGB('',0.509803950786591,0.509803950786591,0.588235318660736);
#312=AXIS2_PLACEMENT_3D('',#463,#464,#465);
#313=DRAUGHTING_PRE_DEFINED_CURVE_FONT('continuous');
#314=COLOUR_RGB('',0.509803950786591,0.509803950786591,0.588235318660736);
#315=CARTESIAN_POINT('',(3.0,1.07153055959458E-016,-4.25));
#316=VECTOR('',#466,1.0);
#317=PRE_DEFINED_MARKER('');
#318=COLOUR_RGB('',0.509803950786591,0.509803950786591,0.588235318660736);
#319=DRAUGHTING_PRE_DEFINED_CURVE_FONT('continuous');
#320=COLOUR_RGB('',0.509803950786591,0.509803950786591,0.588235318660736);
#321=CARTESIAN_POINT('',(2.85,-2.17367627803472E-016,-9.25));
#322=VECTOR('',#467,1.0);
#323=DRAUGHTING_PRE_DEFINED_CURVE_FONT('continuous');
#324=COLOUR_RGB('',0.509803950786591,0.509803950786591,0.588235318660736);
#325=AXIS2_PLACEMENT_3D('',#468,#469,#470);
#326=PRE_DEFINED_MARKER('');
#327=COLOUR_RGB('',0.509803950786591,0.509803950786591,0.588235318660736);
#328=DRAUGHTING_PRE_DEFINED_CURVE_FONT('continuous');
#329=COLOUR_RGB('',0.509803950786591,0.509803950786591,0.588235318660736);
#330=CARTESIAN_POINT('',(-3.0,-6.27610756333968E-016,-4.25));
#331=VECTOR('',#471,1.0);
#332=DRAUGHTING_PRE_DEFINED_CURVE_FONT('continuous');
#333=COLOUR_RGB('',0.509803950786591,0.509803950786591,0.588235318660736);
#334=AXIS2_PLACEMENT_3D('',#472,#473,#474);
#335=SURFACE_SIDE_STYLE('',(#475));
#336=EDGE_LOOP('',(#476,#477,#478,#479));
#337=AXIS2_PLACEMENT_3D('',#480,#481,#482);
#338=DRAUGHTING_PRE_DEFINED_CURVE_FONT('continuous');
#339=COLOUR_RGB('',0.509803950786591,0.509803950786591,0.588235318660736);
#340=AXIS2_PLACEMENT_3D('',#483,#484,#485);
#341=DRAUGHTING_PRE_DEFINED_CURVE_FONT('continuous');
#342=COLOUR_RGB('',0.509803950786591,0.509803950786591,0.588235318660736);
#343=CARTESIAN_POINT('',(-5.7,-3.49012810839378E-016,5.7));
#344=VECTOR('',#486,1.0);
#345=SURFACE_SIDE_STYLE('',(#487));
#346=EDGE_LOOP('',(#488,#489,#490,#491));
#347=AXIS2_PLACEMENT_3D('',#492,#493,#494);
#348=SURFACE_SIDE_STYLE('',(#495));
#349=EDGE_LOOP('',(#496,#497,#498,#499));
#350=AXIS2_PLACEMENT_3D('',#500,#501,#502);
#351=PRE_DEFINED_MARKER('');
#352=COLOUR_RGB('',0.509803950786591,0.509803950786591,0.588235318660736);
#353=PRE_DEFINED_MARKER('');
#354=COLOUR_RGB('',0.509803950786591,0.509803950786591,0.588235318660736);
#355=PRE_DEFINED_MARKER('');
#356=COLOUR_RGB('',0.509803950786591,0.509803950786591,0.588235318660736);
#357=PRE_DEFINED_MARKER('');
#358=COLOUR_RGB('',0.509803950786591,0.509803950786591,0.588235318660736);
#359=DRAUGHTING_PRE_DEFINED_CURVE_FONT('continuous');
#360=COLOUR_RGB('',0.509803950786591,0.509803950786591,0.588235318660736);
#361=CARTESIAN_POINT('',(5.7,1.04703843251813E-015,5.7));
#362=VECTOR('',#503,1.0);
#363=SURFACE_SIDE_STYLE('',(#504));
#364=EDGE_LOOP('',(#505,#506));
#365=EDGE_LOOP('',(#507,#508));
#366=AXIS2_PLACEMENT_3D('',#509,#510,#511);
#367=PRE_DEFINED_MARKER('');
#368=COLOUR_RGB('',0.509803950786591,0.509803950786591,0.588235318660736);
#369=PRE_DEFINED_MARKER('');
#370=COLOUR_RGB('',0.509803950786591,0.509803950786591,0.588235318660736);
#371=DRAUGHTING_PRE_DEFINED_CURVE_FONT('continuous');
#372=COLOUR_RGB('',0.509803950786591,0.509803950786591,0.588235318660736);
#373=CARTESIAN_POINT('',(-2.85,-9.15393249482227E-016,-9.25));
#374=VECTOR('',#512,1.0);
#375=DRAUGHTING_PRE_DEFINED_CURVE_FONT('continuous');
#376=COLOUR_RGB('',0.509803950786591,0.509803950786591,0.588235318660736);
#377=AXIS2_PLACEMENT_3D('',#513,#514,#515);
#378=PRE_DEFINED_MARKER('');
#379=COLOUR_RGB('',0.509803950786591,0.509803950786591,0.588235318660736);
#380=PRE_DEFINED_MARKER('');
#381=COLOUR_RGB('',0.509803950786591,0.509803950786591,0.588235318660736);
#382=DRAUGHTING_PRE_DEFINED_CURVE_FONT('continuous');
#383=COLOUR_RGB('',0.509803950786591,0.509803950786591,0.588235318660736);
#384=CARTESIAN_POINT('',(6.0,9.00085670059447E-016,2.7));
#385=VECTOR('',#516,1.0);
#386=DRAUGHTING_PRE_DEFINED_CURVE_FONT('continuous');
#387=COLOUR_RGB('',0.509803950786591,0.509803950786591,0.588235318660736);
#388=AXIS2_PLACEMENT_3D('',#517,#518,#519);
#389=SURFACE_SIDE_STYLE('',(#520));
#390=EDGE_LOOP('',(#521,#522,#523,#524));
#391=AXIS2_PLACEMENT_3D('',#525,#526,#527);
#392=PRE_DEFINED_MARKER('');
#393=COLOUR_RGB('',0.509803950786591,0.509803950786591,0.588235318660736);
#394=PRE_DEFINED_MARKER('');
#395=COLOUR_RGB('',0.509803950786591,0.509803950786591,0.588235318660736);
#396=DRAUGHTING_PRE_DEFINED_CURVE_FONT('continuous');
#397=COLOUR_RGB('',0.509803950786591,0.509803950786591,0.588235318660736);
#398=CARTESIAN_POINT('',(-6.0,-5.69441954527405E-016,2.7));
#399=VECTOR('',#528,1.0);
#401=SURFACE_STYLE_FILL_AREA(#529);
#402=ORIENTED_EDGE('',*,*,#97,.F.);
#403=ORIENTED_EDGE('',*,*,#69,.T.);
#404=ORIENTED_EDGE('',*,*,#133,.F.);
#405=ORIENTED_EDGE('',*,*,#135,.F.);
#406=CARTESIAN_POINT('',(0.0,-5.66380438642849E-016,-9.25));
#407=DIRECTION('',(-0.0,6.12303176911189E-017,1.0));
#408=DIRECTION('',(1.0,0.0,0.0));
#409=CARTESIAN_POINT('',(0.0,-5.2045770037451E-016,-8.5));
#410=DIRECTION('',(0.0,-6.12303176911189E-017,-1.0));
#411=DIRECTION('',(1.0,0.0,0.0));
#412=SURFACE_STYLE_FILL_AREA(#530);
#413=ORIENTED_EDGE('',*,*,#135,.T.);
#414=ORIENTED_EDGE('',*,*,#91,.T.);
#415=CARTESIAN_POINT('',(1.35,-6.12303176911189E-016,-10.0));
#416=DIRECTION('',(0.0,-6.12303176911189E-017,-1.0));
#417=DIRECTION('',(1.0,0.0,0.0));
#418=CARTESIAN_POINT('',(0.0,0.0,0.0));
#419=DIRECTION('',(0.0,-6.12303176911189E-017,-1.0));
#420=DIRECTION('',(1.0,0.0,0.0));
#421=CARTESIAN_POINT('',(0.0,-5.2045770037451E-016,-8.5));
#422=DIRECTION('',(0.0,-6.12303176911189E-017,-1.0));
#423=DIRECTION('',(1.0,0.0,0.0));
#424=SURFACE_STYLE_FILL_AREA(#531);
#425=ORIENTED_EDGE('',*,*,#141,.F.);
#426=ORIENTED_EDGE('',*,*,#99,.T.);
#427=ORIENTED_EDGE('',*,*,#151,.F.);
#428=ORIENTED_EDGE('',*,*,#143,.F.);
#429=CARTESIAN_POINT('',(0.0,1.65321857766021E-016,2.7));
#430=DIRECTION('',(-0.0,6.12303176911189E-017,1.0));
#431=DIRECTION('',(1.0,0.0,0.0));
#432=CARTESIAN_POINT('',(0.0,0.0,0.0));
#433=DIRECTION('',(0.0,-6.12303176911189E-017,-1.0));
#434=DIRECTION('',(1.0,0.0,0.0));
#435=SURFACE_STYLE_FILL_AREA(#532);
#436=ORIENTED_EDGE('',*,*,#109,.F.);
#437=ORIENTED_EDGE('',*,*,#89,.F.);
#438=CARTESIAN_POINT('',(2.7,3.67381906146713E-016,6.0));
#439=DIRECTION('',(0.0,6.12303176911189E-017,1.0));
#440=DIRECTION('',(-1.0,0.0,0.0));
#441=CARTESIAN_POINT('',(0.0,3.30643715532042E-016,5.4));
#442=DIRECTION('',(0.0,-6.12303176911189E-017,-1.0));
#443=DIRECTION('',(1.0,0.0,0.0));
#444=SURFACE_STYLE_FILL_AREA(#533);
#445=ORIENTED_EDGE('',*,*,#97,.T.);
#446=ORIENTED_EDGE('',*,*,#91,.F.);
#447=ORIENTED_EDGE('',*,*,#133,.T.);
#448=ORIENTED_EDGE('',*,*,#75,.T.);
#449=CARTESIAN_POINT('',(0.0,-5.66380438642849E-016,-9.25));
#450=DIRECTION('',(-0.0,6.12303176911189E-017,1.0));
#451=DIRECTION('',(1.0,0.0,0.0));
#452=SURFACE_STYLE_FILL_AREA(#534);
#453=ORIENTED_EDGE('',*,*,#141,.T.);
#454=ORIENTED_EDGE('',*,*,#79,.F.);
#455=ORIENTED_EDGE('',*,*,#151,.T.);
#456=ORIENTED_EDGE('',*,*,#83,.T.);
#457=CARTESIAN_POINT('',(0.0,1.65321857766021E-016,2.7));
#458=DIRECTION('',(-0.0,6.12303176911189E-017,1.0));
#459=DIRECTION('',(1.0,0.0,0.0));
#460=CARTESIAN_POINT('',(0.0,3.67381906146713E-016,6.0));
#461=DIRECTION('',(0.0,-6.12303176911189E-017,-1.0));
#462=DIRECTION('',(1.0,0.0,0.0));
#463=CARTESIAN_POINT('',(0.0,-6.12303176911189E-016,-10.0));
#464=DIRECTION('',(0.0,-6.12303176911189E-017,-1.0));
#465=DIRECTION('',(1.0,0.0,0.0));
#466=DIRECTION('',(0.0,-6.12303176911189E-017,-1.0));
#467=DIRECTION('',(-0.196116135138184,-8.40577728120578E-017,-0.98058067569092));
#468=CARTESIAN_POINT('',(0.0,3.30643715532042E-016,5.4));
#469=DIRECTION('',(0.0,-6.12303176911189E-017,-1.0));
#470=DIRECTION('',(1.0,0.0,0.0));
#471=DIRECTION('',(-0.0,6.12303176911189E-017,1.0));
#472=CARTESIAN_POINT('',(0.0,0.0,0.0));
#473=DIRECTION('',(0.0,-6.12303176911189E-017,-1.0));
#474=DIRECTION('',(1.0,0.0,0.0));
#475=SURFACE_STYLE_FILL_AREA(#535);
#476=ORIENTED_EDGE('',*,*,#125,.F.);
#477=ORIENTED_EDGE('',*,*,#109,.T.);
#478=ORIENTED_EDGE('',*,*,#111,.F.);
#479=ORIENTED_EDGE('',*,*,#99,.F.);
#480=CARTESIAN_POINT('',(0.0,3.49012810839378E-016,5.7));
#481=DIRECTION('',(0.0,-6.12303176911189E-017,-1.0));
#482=DIRECTION('',(1.0,0.0,0.0));
#483=CARTESIAN_POINT('',(0.0,3.67381906146713E-016,6.0));
#484=DIRECTION('',(0.0,-6.12303176911189E-017,-1.0));
#485=DIRECTION('',(1.0,0.0,0.0));
#486=DIRECTION('',(0.707106781186547,1.2988911856079E-016,0.707106781186548));
#487=SURFACE_STYLE_FILL_AREA(#536);
#488=ORIENTED_EDGE('',*,*,#93,.F.);
#489=ORIENTED_EDGE('',*,*,#105,.T.);
#490=ORIENTED_EDGE('',*,*,#103,.F.);
#491=ORIENTED_EDGE('',*,*,#69,.F.);
#492=CARTESIAN_POINT('',(0.0,-2.60228850187255E-016,-4.25));
#493=DIRECTION('',(-0.0,6.12303176911189E-017,1.0));
#494=DIRECTION('',(1.0,0.0,0.0));
#495=SURFACE_STYLE_FILL_AREA(#537);
#496=ORIENTED_EDGE('',*,*,#125,.T.);
#497=ORIENTED_EDGE('',*,*,#83,.F.);
#498=ORIENTED_EDGE('',*,*,#111,.T.);
#499=ORIENTED_EDGE('',*,*,#89,.T.);
#500=CARTESIAN_POINT('',(0.0,3.49012810839378E-016,5.7));
#501=DIRECTION('',(0.0,-6.12303176911189E-017,-1.0));
#502=DIRECTION('',(1.0,0.0,0.0));
#503=DIRECTION('',(0.707106781186547,4.32963728535967E-017,-0.707106781186548));
#504=SURFACE_STYLE_FILL_AREA(#538);
#505=ORIENTED_EDGE('',*,*,#105,.F.);
#506=ORIENTED_EDGE('',*,*,#73,.F.);
#507=ORIENTED_EDGE('',*,*,#143,.T.);
#508=ORIENTED_EDGE('',*,*,#79,.T.);
#509=CARTESIAN_POINT('',(4.5,0.0,0.0));
#510=DIRECTION('',(0.0,-6.12303176911189E-017,-1.0));
#511=DIRECTION('',(1.0,0.0,0.0));
#512=DIRECTION('',(-0.196116135138184,3.60247597765962E-017,0.98058067569092));
#513=CARTESIAN_POINT('',(0.0,-6.12303176911189E-016,-10.0));
#514=DIRECTION('',(0.0,-6.12303176911189E-017,-1.0));
#515=DIRECTION('',(1.0,0.0,0.0));
#516=DIRECTION('',(0.0,-6.12303176911189E-017,-1.0));
#517=CARTESIAN_POINT('',(0.0,0.0,0.0));
#518=DIRECTION('',(0.0,-6.12303176911189E-017,-1.0));
#519=DIRECTION('',(1.0,0.0,0.0));
#520=SURFACE_STYLE_FILL_AREA(#539);
#521=ORIENTED_EDGE('',*,*,#93,.T.);
#522=ORIENTED_EDGE('',*,*,#75,.F.);
#523=ORIENTED_EDGE('',*,*,#103,.T.);
#524=ORIENTED_EDGE('',*,*,#73,.T.);
#525=CARTESIAN_POINT('',(0.0,-2.60228850187255E-016,-4.25));
#526=DIRECTION('',(-0.0,6.12303176911189E-017,1.0));
#527=DIRECTION('',(1.0,0.0,0.0));
#528=DIRECTION('',(-0.0,6.12303176911189E-017,1.0));
#529=FILL_AREA_STYLE('',(#540));
#530=FILL_AREA_STYLE('',(#541));
#531=FILL_AREA_STYLE('',(#542));
#532=FILL_AREA_STYLE('',(#543));
#533=FILL_AREA_STYLE('',(#544));
#534=FILL_AREA_STYLE('',(#545));
#535=FILL_AREA_STYLE('',(#546));
#536=FILL_AREA_STYLE('',(#547));
#537=FILL_AREA_STYLE('',(#548));
#538=FILL_AREA_STYLE('',(#549));
#539=FILL_AREA_STYLE('',(#550));
#540=FILL_AREA_STYLE_COLOUR('',#551);
#541=FILL_AREA_STYLE_COLOUR('',#552);
#542=FILL_AREA_STYLE_COLOUR('',#553);
#543=FILL_AREA_STYLE_COLOUR('',#554);
#544=FILL_AREA_STYLE_COLOUR('',#555);
#545=FILL_AREA_STYLE_COLOUR('',#556);
#546=FILL_AREA_STYLE_COLOUR('',#557);
#547=FILL_AREA_STYLE_COLOUR('',#558);
#548=FILL_AREA_STYLE_COLOUR('',#559);
#549=FILL_AREA_STYLE_COLOUR('',#560);
#550=FILL_AREA_STYLE_COLOUR('',#561);
#551=COLOUR_RGB('',0.509803950786591,0.509803950786591,0.588235318660736);
#552=COLOUR_RGB('',0.509803950786591,0.509803950786591,0.588235318660736);
#553=COLOUR_RGB('',0.509803950786591,0.509803950786591,0.588235318660736);
#554=COLOUR_RGB('',0.509803950786591,0.509803950786591,0.588235318660736);
#555=COLOUR_RGB('',0.509803950786591,0.509803950786591,0.588235318660736);
#556=COLOUR_RGB('',0.509803950786591,0.509803950786591,0.588235318660736);
#557=COLOUR_RGB('',0.509803950786591,0.509803950786591,0.588235318660736);
#558=COLOUR_RGB('',0.509803950786591,0.509803950786591,0.588235318660736);
#559=COLOUR_RGB('',0.509803950786591,0.509803950786591,0.588235318660736);
#560=COLOUR_RGB('',0.509803950786591,0.509803950786591,0.588235318660736);
#561=COLOUR_RGB('',0.509803950786591,0.509803950786591,0.588235318660736);
ENDSEC;
END-ISO-10303-21;
