ISO-10303-21;
HEADER;
FILE_DESCRIPTION(('STEP AP214'),'1');
FILE_NAME(' ','  ',('TraceParts'),('TraceParts S.A.'),'XStep 1.0',' ',' ');
FILE_SCHEMA(('automotive_design'));
ENDSEC;
DATA;
#1=MECHANICAL_DESIGN_GEOMETRIC_PRESENTATION_REPRESENTATION(' ',(#10,#11,#12,#13,#14,#15,#16,#17,#18,#19,#20,#21,#22,#23,#24,#25,#26,#27,#28,#29,#30,#31,#32,#33,#34,#35,#36,#37,#38,#39,#40,#41,#42,#43,#44,#45,#46,#47,#48,#49,#50,#51,#52),#6);
#2=PRODUCT_DEFINITION_CONTEXT('',#53,'design');
#3=APPLICATION_PROTOCOL_DEFINITION('INTERNATIONAL STANDARD','automotive_design',1994,#53);
#4=PRODUCT_CATEGORY_RELATIONSHIP('NONE','NONE',#54,#55);
#5=SHAPE_DEFINITION_REPRESENTATION(#56,#57);
#6= (GEOMETRIC_REPRESENTATION_CONTEXT(3)GLOBAL_UNCERTAINTY_ASSIGNED_CONTEXT((#60))GLOBAL_UNIT_ASSIGNED_CONTEXT((#62,#63,#64))REPRESENTATION_CONTEXT('NONE','WORKSPACE'));
#10=STYLED_ITEM('',(#66),#67);
#11=STYLED_ITEM('',(#68),#69);
#12=STYLED_ITEM('',(#70),#71);
#13=STYLED_ITEM('',(#72),#73);
#14=STYLED_ITEM('',(#74),#75);
#15=STYLED_ITEM('',(#76),#77);
#16=STYLED_ITEM('',(#78),#79);
#17=STYLED_ITEM('',(#80),#81);
#18=STYLED_ITEM('',(#82),#83);
#19=STYLED_ITEM('',(#84),#85);
#20=STYLED_ITEM('',(#86),#87);
#21=STYLED_ITEM('',(#88),#89);
#22=STYLED_ITEM('',(#90),#91);
#23=STYLED_ITEM('',(#92),#93);
#24=STYLED_ITEM('',(#94),#95);
#25=STYLED_ITEM('',(#96),#97);
#26=STYLED_ITEM('',(#98),#99);
#27=STYLED_ITEM('',(#100),#101);
#28=STYLED_ITEM('',(#102),#103);
#29=STYLED_ITEM('',(#104),#105);
#30=STYLED_ITEM('',(#106),#107);
#31=STYLED_ITEM('',(#108),#109);
#32=STYLED_ITEM('',(#110),#111);
#33=STYLED_ITEM('',(#112),#113);
#34=STYLED_ITEM('',(#114),#115);
#35=STYLED_ITEM('',(#116),#117);
#36=STYLED_ITEM('',(#118),#119);
#37=STYLED_ITEM('',(#120),#121);
#38=STYLED_ITEM('',(#122),#123);
#39=STYLED_ITEM('',(#124),#125);
#40=STYLED_ITEM('',(#126),#127);
#41=STYLED_ITEM('',(#128),#129);
#42=STYLED_ITEM('',(#130),#131);
#43=STYLED_ITEM('',(#132),#133);
#44=STYLED_ITEM('',(#134),#135);
#45=STYLED_ITEM('',(#136),#137);
#46=STYLED_ITEM('',(#138),#139);
#47=STYLED_ITEM('',(#140),#141);
#48=STYLED_ITEM('',(#142),#143);
#49=STYLED_ITEM('',(#144),#145);
#50=STYLED_ITEM('',(#146),#147);
#51=STYLED_ITEM('',(#148),#149);
#52=STYLED_ITEM('',(#150),#151);
#53=APPLICATION_CONTEXT(' ');
#54=PRODUCT_CATEGORY('part','NONE');
#55=PRODUCT_RELATED_PRODUCT_CATEGORY('detail',' ',(#152));
#56=PRODUCT_DEFINITION_SHAPE('NONE','NONE',#153);
#57=ADVANCED_BREP_SHAPE_REPRESENTATION('1',(#154,#155),#6);
#60=UNCERTAINTY_MEASURE_WITH_UNIT(LENGTH_MEASURE(1.0E-006),#62,'','');
#62= (CONVERSION_BASED_UNIT('MILLIMETRE',#158)LENGTH_UNIT()NAMED_UNIT(#161));
#63= (NAMED_UNIT(#163)PLANE_ANGLE_UNIT()SI_UNIT($,.RADIAN.));
#64= (NAMED_UNIT(#163)SOLID_ANGLE_UNIT()SI_UNIT($,.STERADIAN.));
#66=PRESENTATION_STYLE_ASSIGNMENT((#169));
#67=VERTEX_POINT('',#170);
#68=PRESENTATION_STYLE_ASSIGNMENT((#171));
#69=EDGE_CURVE('',#119,#67,#172,.T.);
#70=PRESENTATION_STYLE_ASSIGNMENT((#173));
#71=EDGE_CURVE('',#143,#83,#174,.T.);
#72=PRESENTATION_STYLE_ASSIGNMENT((#175));
#73=EDGE_CURVE('',#67,#119,#176,.T.);
#74=PRESENTATION_STYLE_ASSIGNMENT((#177));
#75=EDGE_CURVE('',#139,#127,#178,.T.);
#76=PRESENTATION_STYLE_ASSIGNMENT((#179));
#77=EDGE_CURVE('',#91,#97,#180,.T.);
#78=PRESENTATION_STYLE_ASSIGNMENT((#181));
#79=ADVANCED_FACE('',(#182),#183,.T.);
#80=PRESENTATION_STYLE_ASSIGNMENT((#184));
#81=VERTEX_POINT('',#185);
#82=PRESENTATION_STYLE_ASSIGNMENT((#186));
#83=VERTEX_POINT('',#187);
#84=PRESENTATION_STYLE_ASSIGNMENT((#188));
#85=EDGE_CURVE('',#83,#143,#189,.T.);
#86=PRESENTATION_STYLE_ASSIGNMENT((#190));
#87=EDGE_CURVE('',#81,#97,#191,.T.);
#88=PRESENTATION_STYLE_ASSIGNMENT((#192));
#89=ADVANCED_FACE('',(#193),#194,.T.);
#90=PRESENTATION_STYLE_ASSIGNMENT((#195));
#91=VERTEX_POINT('',#196);
#92=PRESENTATION_STYLE_ASSIGNMENT((#197));
#93=EDGE_CURVE('',#141,#91,#198,.T.);
#94=PRESENTATION_STYLE_ASSIGNMENT((#199));
#95=EDGE_CURVE('',#113,#135,#200,.T.);
#96=PRESENTATION_STYLE_ASSIGNMENT((#201));
#97=VERTEX_POINT('',#202);
#98=PRESENTATION_STYLE_ASSIGNMENT((#203));
#99=ADVANCED_FACE('',(#204,#205),#206,.T.);
#100=PRESENTATION_STYLE_ASSIGNMENT((#207));
#101=ADVANCED_FACE('',(#208),#209,.T.);
#102=PRESENTATION_STYLE_ASSIGNMENT((#210));
#103=ADVANCED_FACE('',(#211),#212,.T.);
#104=PRESENTATION_STYLE_ASSIGNMENT((#213));
#105=EDGE_CURVE('',#127,#139,#214,.T.);
#106=PRESENTATION_STYLE_ASSIGNMENT((#215));
#107=EDGE_CURVE('',#141,#113,#216,.T.);
#108=PRESENTATION_STYLE_ASSIGNMENT((#217));
#109=EDGE_CURVE('',#83,#67,#218,.T.);
#110=PRESENTATION_STYLE_ASSIGNMENT((#219));
#111=EDGE_CURVE('',#135,#113,#220,.T.);
#112=PRESENTATION_STYLE_ASSIGNMENT((#221));
#113=VERTEX_POINT('',#222);
#114=PRESENTATION_STYLE_ASSIGNMENT((#223));
#115=ADVANCED_FACE('',(#224),#225,.T.);
#116=PRESENTATION_STYLE_ASSIGNMENT((#226));
#117=ADVANCED_FACE('',(#227),#228,.T.);
#118=PRESENTATION_STYLE_ASSIGNMENT((#229));
#119=VERTEX_POINT('',#230);
#120=PRESENTATION_STYLE_ASSIGNMENT((#231));
#121=EDGE_CURVE('',#67,#139,#232,.T.);
#122=PRESENTATION_STYLE_ASSIGNMENT((#233));
#123=EDGE_CURVE('',#91,#141,#234,.T.);
#124=PRESENTATION_STYLE_ASSIGNMENT((#235));
#125=EDGE_CURVE('',#135,#91,#236,.T.);
#126=PRESENTATION_STYLE_ASSIGNMENT((#237));
#127=VERTEX_POINT('',#238);
#128=PRESENTATION_STYLE_ASSIGNMENT((#239));
#129=ADVANCED_FACE('',(#240),#241,.T.);
#130=PRESENTATION_STYLE_ASSIGNMENT((#242));
#131=ADVANCED_FACE('',(#243),#244,.T.);
#132=PRESENTATION_STYLE_ASSIGNMENT((#245));
#133=EDGE_CURVE('',#127,#119,#246,.T.);
#134=PRESENTATION_STYLE_ASSIGNMENT((#247));
#135=VERTEX_POINT('',#248);
#136=PRESENTATION_STYLE_ASSIGNMENT((#249));
#137=ADVANCED_FACE('',(#250),#251,.T.);
#138=PRESENTATION_STYLE_ASSIGNMENT((#252));
#139=VERTEX_POINT('',#253);
#140=PRESENTATION_STYLE_ASSIGNMENT((#254));
#141=VERTEX_POINT('',#255);
#142=PRESENTATION_STYLE_ASSIGNMENT((#256));
#143=VERTEX_POINT('',#257);
#144=PRESENTATION_STYLE_ASSIGNMENT((#258));
#145=ADVANCED_FACE('',(#259),#260,.T.);
#146=PRESENTATION_STYLE_ASSIGNMENT((#261));
#147=EDGE_CURVE('',#119,#143,#262,.T.);
#148=PRESENTATION_STYLE_ASSIGNMENT((#263));
#149=EDGE_CURVE('',#97,#81,#264,.T.);
#150=PRESENTATION_STYLE_ASSIGNMENT((#265));
#151=EDGE_CURVE('',#81,#141,#266,.T.);
#152=PRODUCT('1','1','PART-1-DESC',(#267));
#153=PRODUCT_DEFINITION('NONE','NONE',#268,#2);
#154=MANIFOLD_SOLID_BREP('1',#269);
#155=AXIS2_PLACEMENT_3D('',#270,#271,#272);
#158=LENGTH_MEASURE_WITH_UNIT(LENGTH_MEASURE(1.0),#273);
#161=DIMENSIONAL_EXPONENTS(1.0,0.0,0.0,0.0,0.0,0.0,0.0);
#163=DIMENSIONAL_EXPONENTS(0.0,0.0,0.0,0.0,0.0,0.0,0.0);
#169=POINT_STYLE(' ',#274,POSITIVE_LENGTH_MEASURE(1.0E-006),#275);
#170=CARTESIAN_POINT('',(2.5,-4.13304644415052E-016,-6.75));
#171=CURVE_STYLE('',#276,POSITIVE_LENGTH_MEASURE(1.0E-006),#277);
#172=CIRCLE('',#278,2.5);
#173=CURVE_STYLE('',#279,POSITIVE_LENGTH_MEASURE(1.0E-006),#280);
#174=CIRCLE('',#281,2.5);
#175=CURVE_STYLE('',#282,POSITIVE_LENGTH_MEASURE(1.0E-006),#283);
#176=CIRCLE('',#284,2.5);
#177=CURVE_STYLE('',#285,POSITIVE_LENGTH_MEASURE(1.0E-006),#286);
#178=CIRCLE('',#287,2.25);
#179=CURVE_STYLE('',#288,POSITIVE_LENGTH_MEASURE(1.0E-006),#289);
#180=LINE('',#290,#291);
#181=SURFACE_STYLE_USAGE(.BOTH.,#292);
#182=FACE_OUTER_BOUND('',#293,.T.);
#183=CONICAL_SURFACE('',#294,2.375,0.197395559849881);
#184=POINT_STYLE(' ',#295,POSITIVE_LENGTH_MEASURE(1.0E-006),#296);
#185=CARTESIAN_POINT('',(-4.0,-4.89842541528951E-016,2.99932144364427E-032));
#186=POINT_STYLE(' ',#297,POSITIVE_LENGTH_MEASURE(1.0E-006),#298);
#187=CARTESIAN_POINT('',(2.5,0.0,0.0));
#188=CURVE_STYLE('',#299,POSITIVE_LENGTH_MEASURE(1.0E-006),#300);
#189=CIRCLE('',#301,2.5);
#190=CURVE_STYLE('',#302,POSITIVE_LENGTH_MEASURE(1.0E-006),#303);
#191=CIRCLE('',#304,4.0);
#192=SURFACE_STYLE_USAGE(.BOTH.,#305);
#193=FACE_OUTER_BOUND('',#306,.T.);
#194=PLANE('',#307);
#195=POINT_STYLE(' ',#308,POSITIVE_LENGTH_MEASURE(1.0E-006),#309);
#196=CARTESIAN_POINT('',(4.0,3.85751001454049E-016,6.3));
#197=CURVE_STYLE('',#310,POSITIVE_LENGTH_MEASURE(1.0E-006),#311);
#198=CIRCLE('',#312,4.0);
#199=CURVE_STYLE('',#313,POSITIVE_LENGTH_MEASURE(1.0E-006),#314);
#200=CIRCLE('',#315,3.3);
#201=POINT_STYLE(' ',#316,POSITIVE_LENGTH_MEASURE(1.0E-006),#317);
#202=CARTESIAN_POINT('',(4.0,0.0,0.0));
#203=SURFACE_STYLE_USAGE(.BOTH.,#318);
#204=FACE_BOUND('',#319,.T.);
#205=FACE_OUTER_BOUND('',#320,.T.);
#206=PLANE('',#321);
#207=SURFACE_STYLE_USAGE(.BOTH.,#322);
#208=FACE_OUTER_BOUND('',#323,.T.);
#209=CYLINDRICAL_SURFACE('',#324,4.0);
#210=SURFACE_STYLE_USAGE(.BOTH.,#325);
#211=FACE_OUTER_BOUND('',#326,.T.);
#212=CYLINDRICAL_SURFACE('',#327,2.5);
#213=CURVE_STYLE('',#328,POSITIVE_LENGTH_MEASURE(1.0E-006),#329);
#214=CIRCLE('',#330,2.25);
#215=CURVE_STYLE('',#331,POSITIVE_LENGTH_MEASURE(1.0E-006),#332);
#216=LINE('',#333,#334);
#217=CURVE_STYLE('',#335,POSITIVE_LENGTH_MEASURE(1.0E-006),#336);
#218=LINE('',#337,#338);
#219=CURVE_STYLE('',#339,POSITIVE_LENGTH_MEASURE(1.0E-006),#340);
#220=CIRCLE('',#341,3.3);
#221=POINT_STYLE(' ',#342,POSITIVE_LENGTH_MEASURE(1.0E-006),#343);
#222=CARTESIAN_POINT('',(-3.3,2.44921270764476E-017,7.0));
#223=SURFACE_STYLE_USAGE(.BOTH.,#344);
#224=FACE_OUTER_BOUND('',#345,.T.);
#225=CYLINDRICAL_SURFACE('',#346,2.5);
#226=SURFACE_STYLE_USAGE(.BOTH.,#347);
#227=FACE_OUTER_BOUND('',#348,.T.);
#228=CONICAL_SURFACE('',#349,3.65,0.785398163397448);
#229=POINT_STYLE(' ',#350,POSITIVE_LENGTH_MEASURE(1.0E-006),#351);
#230=CARTESIAN_POINT('',(-2.5,-7.19456232870647E-016,-6.75));
#231=CURVE_STYLE('',#352,POSITIVE_LENGTH_MEASURE(1.0E-006),#353);
#232=LINE('',#354,#355);
#233=CURVE_STYLE('',#356,POSITIVE_LENGTH_MEASURE(1.0E-006),#357);
#234=CIRCLE('',#358,4.0);
#235=CURVE_STYLE('',#359,POSITIVE_LENGTH_MEASURE(1.0E-006),#360);
#236=LINE('',#361,#362);
#237=POINT_STYLE(' ',#363,POSITIVE_LENGTH_MEASURE(1.0E-006),#364);
#238=CARTESIAN_POINT('',(-2.25,-7.65378971138986E-016,-8.0));
#239=SURFACE_STYLE_USAGE(.BOTH.,#365);
#240=FACE_OUTER_BOUND('',#366,.T.);
#241=CONICAL_SURFACE('',#367,3.65,0.785398163397448);
#242=SURFACE_STYLE_USAGE(.BOTH.,#368);
#243=FACE_OUTER_BOUND('',#369,.T.);
#244=PLANE('',#370);
#245=CURVE_STYLE('',#371,POSITIVE_LENGTH_MEASURE(1.0E-006),#372);
#246=LINE('',#373,#374);
#247=POINT_STYLE(' ',#375,POSITIVE_LENGTH_MEASURE(1.0E-006),#376);
#248=CARTESIAN_POINT('',(3.3,4.28612223837832E-016,7.0));
#249=SURFACE_STYLE_USAGE(.BOTH.,#377);
#250=FACE_OUTER_BOUND('',#378,.T.);
#251=CYLINDRICAL_SURFACE('',#379,4.0);
#252=POINT_STYLE(' ',#380,POSITIVE_LENGTH_MEASURE(1.0E-006),#381);
#253=CARTESIAN_POINT('',(2.25,-4.89842541528951E-016,-8.0));
#254=POINT_STYLE(' ',#382,POSITIVE_LENGTH_MEASURE(1.0E-006),#383);
#255=CARTESIAN_POINT('',(-4.0,-1.04091540074902E-016,6.3));
#256=POINT_STYLE(' ',#384,POSITIVE_LENGTH_MEASURE(1.0E-006),#385);
#257=CARTESIAN_POINT('',(-2.5,-3.06151588455594E-016,1.87457590227767E-032));
#258=SURFACE_STYLE_USAGE(.BOTH.,#386);
#259=FACE_OUTER_BOUND('',#387,.T.);
#260=CONICAL_SURFACE('',#388,2.375,0.197395559849881);
#261=CURVE_STYLE('',#389,POSITIVE_LENGTH_MEASURE(1.0E-006),#390);
#262=LINE('',#391,#392);
#263=CURVE_STYLE('',#393,POSITIVE_LENGTH_MEASURE(1.0E-006),#394);
#264=CIRCLE('',#395,4.0);
#265=CURVE_STYLE('',#396,POSITIVE_LENGTH_MEASURE(1.0E-006),#397);
#266=LINE('',#398,#399);
#267=PRODUCT_CONTEXT('',#53,'mechanical');
#268=PRODUCT_DEFINITION_FORMATION_WITH_SPECIFIED_SOURCE(' ','NONE',#152,.NOT_KNOWN.);
#269=CLOSED_SHELL('',(#145,#115,#101,#117,#131,#129,#137,#99,#103,#79,#89));
#270=CARTESIAN_POINT('',(0.0,0.0,0.0));
#271=DIRECTION('',(0.0,0.0,1.0));
#272=DIRECTION('',(1.0,0.0,0.0));
#273= (NAMED_UNIT(#161)LENGTH_UNIT()SI_UNIT(.MILLI.,.METRE.));
#274=PRE_DEFINED_MARKER('');
#275=COLOUR_RGB('',0.509803950786591,0.509803950786591,0.588235318660736);
#276=DRAUGHTING_PRE_DEFINED_CURVE_FONT('continuous');
#277=COLOUR_RGB('',0.509803950786591,0.509803950786591,0.588235318660736);
#278=AXIS2_PLACEMENT_3D('',#401,#402,#403);
#279=DRAUGHTING_PRE_DEFINED_CURVE_FONT('continuous');
#280=COLOUR_RGB('',0.509803950786591,0.509803950786591,0.588235318660736);
#281=AXIS2_PLACEMENT_3D('',#404,#405,#406);
#282=DRAUGHTING_PRE_DEFINED_CURVE_FONT('continuous');
#283=COLOUR_RGB('',0.509803950786591,0.509803950786591,0.588235318660736);
#284=AXIS2_PLACEMENT_3D('',#407,#408,#409);
#285=DRAUGHTING_PRE_DEFINED_CURVE_FONT('continuous');
#286=COLOUR_RGB('',0.509803950786591,0.509803950786591,0.588235318660736);
#287=AXIS2_PLACEMENT_3D('',#410,#411,#412);
#288=DRAUGHTING_PRE_DEFINED_CURVE_FONT('continuous');
#289=COLOUR_RGB('',0.509803950786591,0.509803950786591,0.588235318660736);
#290=CARTESIAN_POINT('',(4.0,6.82718042255975E-016,3.15));
#291=VECTOR('',#413,1.0);
#292=SURFACE_SIDE_STYLE('',(#414));
#293=EDGE_LOOP('',(#415,#416,#417,#418));
#294=AXIS2_PLACEMENT_3D('',#419,#420,#421);
#295=PRE_DEFINED_MARKER('');
#296=COLOUR_RGB('',0.509803950786591,0.509803950786591,0.588235318660736);
#297=PRE_DEFINED_MARKER('');
#298=COLOUR_RGB('',0.509803950786591,0.509803950786591,0.588235318660736);
#299=DRAUGHTING_PRE_DEFINED_CURVE_FONT('continuous');
#300=COLOUR_RGB('',0.509803950786591,0.509803950786591,0.588235318660736);
#301=AXIS2_PLACEMENT_3D('',#422,#423,#424);
#302=DRAUGHTING_PRE_DEFINED_CURVE_FONT('continuous');
#303=COLOUR_RGB('',0.509803950786591,0.509803950786591,0.588235318660736);
#304=AXIS2_PLACEMENT_3D('',#425,#426,#427);
#305=SURFACE_SIDE_STYLE('',(#428));
#306=EDGE_LOOP('',(#429,#430));
#307=AXIS2_PLACEMENT_3D('',#431,#432,#433);
#308=PRE_DEFINED_MARKER('');
#309=COLOUR_RGB('',0.509803950786591,0.509803950786591,0.588235318660736);
#310=DRAUGHTING_PRE_DEFINED_CURVE_FONT('continuous');
#311=COLOUR_RGB('',0.509803950786591,0.509803950786591,0.588235318660736);
#312=AXIS2_PLACEMENT_3D('',#434,#435,#436);
#313=DRAUGHTING_PRE_DEFINED_CURVE_FONT('continuous');
#314=COLOUR_RGB('',0.509803950786591,0.509803950786591,0.588235318660736);
#315=AXIS2_PLACEMENT_3D('',#437,#438,#439);
#316=PRE_DEFINED_MARKER('');
#317=COLOUR_RGB('',0.509803950786591,0.509803950786591,0.588235318660736);
#318=SURFACE_SIDE_STYLE('',(#440));
#319=EDGE_LOOP('',(#441,#442));
#320=EDGE_LOOP('',(#443,#444));
#321=AXIS2_PLACEMENT_3D('',#445,#446,#447);
#322=SURFACE_SIDE_STYLE('',(#448));
#323=EDGE_LOOP('',(#449,#450,#451,#452));
#324=AXIS2_PLACEMENT_3D('',#453,#454,#455);
#325=SURFACE_SIDE_STYLE('',(#456));
#326=EDGE_LOOP('',(#457,#458,#459,#460));
#327=AXIS2_PLACEMENT_3D('',#461,#462,#463);
#328=DRAUGHTING_PRE_DEFINED_CURVE_FONT('continuous');
#329=COLOUR_RGB('',0.509803950786591,0.509803950786591,0.588235318660736);
#330=AXIS2_PLACEMENT_3D('',#464,#465,#466);
#331=DRAUGHTING_PRE_DEFINED_CURVE_FONT('continuous');
#332=COLOUR_RGB('',0.509803950786591,0.509803950786591,0.588235318660736);
#333=CARTESIAN_POINT('',(-3.65,-3.97997064992273E-017,6.65));
#334=VECTOR('',#467,1.0);
#335=DRAUGHTING_PRE_DEFINED_CURVE_FONT('continuous');
#336=COLOUR_RGB('',0.509803950786591,0.509803950786591,0.588235318660736);
#337=CARTESIAN_POINT('',(2.5,9.94992662480682E-017,-3.375));
#338=VECTOR('',#468,1.0);
#339=DRAUGHTING_PRE_DEFINED_CURVE_FONT('continuous');
#340=COLOUR_RGB('',0.509803950786591,0.509803950786591,0.588235318660736);
#341=AXIS2_PLACEMENT_3D('',#469,#470,#471);
#342=PRE_DEFINED_MARKER('');
#343=COLOUR_RGB('',0.509803950786591,0.509803950786591,0.588235318660736);
#344=SURFACE_SIDE_STYLE('',(#472));
#345=EDGE_LOOP('',(#473,#474,#475,#476));
#346=AXIS2_PLACEMENT_3D('',#477,#478,#479);
#347=SURFACE_SIDE_STYLE('',(#480));
#348=EDGE_LOOP('',(#481,#482,#483,#484));
#349=AXIS2_PLACEMENT_3D('',#485,#486,#487);
#350=PRE_DEFINED_MARKER('');
#351=COLOUR_RGB('',0.509803950786591,0.509803950786591,0.588235318660736);
#352=DRAUGHTING_PRE_DEFINED_CURVE_FONT('continuous');
#353=COLOUR_RGB('',0.509803950786591,0.509803950786591,0.588235318660736);
#354=CARTESIAN_POINT('',(2.375,-1.60729583939187E-016,-7.375));
#355=VECTOR('',#488,1.0);
#356=DRAUGHTING_PRE_DEFINED_CURVE_FONT('continuous');
#357=COLOUR_RGB('',0.509803950786591,0.509803950786591,0.588235318660736);
#358=AXIS2_PLACEMENT_3D('',#489,#490,#491);
#359=DRAUGHTING_PRE_DEFINED_CURVE_FONT('continuous');
#360=COLOUR_RGB('',0.509803950786591,0.509803950786591,0.588235318660736);
#361=CARTESIAN_POINT('',(3.65,8.54162931791108E-016,6.65));
#362=VECTOR('',#492,1.0);
#363=PRE_DEFINED_MARKER('');
#364=COLOUR_RGB('',0.509803950786591,0.509803950786591,0.588235318660736);
#365=SURFACE_SIDE_STYLE('',(#493));
#366=EDGE_LOOP('',(#494,#495,#496,#497));
#367=AXIS2_PLACEMENT_3D('',#498,#499,#500);
#368=SURFACE_SIDE_STYLE('',(#501));
#369=EDGE_LOOP('',(#502,#503));
#370=AXIS2_PLACEMENT_3D('',#504,#505,#506);
#371=DRAUGHTING_PRE_DEFINED_CURVE_FONT('continuous');
#372=COLOUR_RGB('',0.509803950786591,0.509803950786591,0.588235318660736);
#373=CARTESIAN_POINT('',(-2.375,-7.42417602004816E-016,-7.375));
#374=VECTOR('',#507,1.0);
#375=PRE_DEFINED_MARKER('');
#376=COLOUR_RGB('',0.509803950786591,0.509803950786591,0.588235318660736);
#377=SURFACE_SIDE_STYLE('',(#508));
#378=EDGE_LOOP('',(#509,#510,#511,#512));
#379=AXIS2_PLACEMENT_3D('',#513,#514,#515);
#380=PRE_DEFINED_MARKER('');
#381=COLOUR_RGB('',0.509803950786591,0.509803950786591,0.588235318660736);
#382=PRE_DEFINED_MARKER('');
#383=COLOUR_RGB('',0.509803950786591,0.509803950786591,0.588235318660736);
#384=PRE_DEFINED_MARKER('');
#385=COLOUR_RGB('',0.509803950786591,0.509803950786591,0.588235318660736);
#386=SURFACE_SIDE_STYLE('',(#516));
#387=EDGE_LOOP('',(#517,#518,#519,#520));
#388=AXIS2_PLACEMENT_3D('',#521,#522,#523);
#389=DRAUGHTING_PRE_DEFINED_CURVE_FONT('continuous');
#390=COLOUR_RGB('',0.509803950786591,0.509803950786591,0.588235318660736);
#391=CARTESIAN_POINT('',(-2.5,-5.1280391066312E-016,-3.375));
#392=VECTOR('',#524,1.0);
#393=DRAUGHTING_PRE_DEFINED_CURVE_FONT('continuous');
#394=COLOUR_RGB('',0.509803950786591,0.509803950786591,0.588235318660736);
#395=AXIS2_PLACEMENT_3D('',#525,#526,#527);
#396=DRAUGHTING_PRE_DEFINED_CURVE_FONT('continuous');
#397=COLOUR_RGB('',0.509803950786591,0.509803950786591,0.588235318660736);
#398=CARTESIAN_POINT('',(-4.0,-2.96967040801926E-016,3.15));
#399=VECTOR('',#528,1.0);
#401=CARTESIAN_POINT('',(0.0,-4.13304644415052E-016,-6.75));
#402=DIRECTION('',(0.0,-6.12303176911189E-017,-1.0));
#403=DIRECTION('',(1.0,0.0,0.0));
#404=CARTESIAN_POINT('',(0.0,0.0,0.0));
#405=DIRECTION('',(0.0,-6.12303176911189E-017,-1.0));
#406=DIRECTION('',(1.0,0.0,0.0));
#407=CARTESIAN_POINT('',(0.0,-4.13304644415052E-016,-6.75));
#408=DIRECTION('',(0.0,-6.12303176911189E-017,-1.0));
#409=DIRECTION('',(1.0,0.0,0.0));
#410=CARTESIAN_POINT('',(0.0,-4.89842541528951E-016,-8.0));
#411=DIRECTION('',(0.0,-6.12303176911189E-017,-1.0));
#412=DIRECTION('',(1.0,0.0,0.0));
#413=DIRECTION('',(0.0,-6.12303176911189E-017,-1.0));
#414=SURFACE_STYLE_FILL_AREA(#529);
#415=ORIENTED_EDGE('',*,*,#121,.T.);
#416=ORIENTED_EDGE('',*,*,#105,.F.);
#417=ORIENTED_EDGE('',*,*,#133,.T.);
#418=ORIENTED_EDGE('',*,*,#69,.T.);
#419=CARTESIAN_POINT('',(0.0,-4.51573592972002E-016,-7.375));
#420=DIRECTION('',(-0.0,6.12303176911189E-017,1.0));
#421=DIRECTION('',(1.0,0.0,0.0));
#422=CARTESIAN_POINT('',(0.0,0.0,0.0));
#423=DIRECTION('',(0.0,-6.12303176911189E-017,-1.0));
#424=DIRECTION('',(1.0,0.0,0.0));
#425=CARTESIAN_POINT('',(0.0,0.0,0.0));
#426=DIRECTION('',(0.0,-6.12303176911189E-017,-1.0));
#427=DIRECTION('',(1.0,0.0,0.0));
#428=SURFACE_STYLE_FILL_AREA(#530);
#429=ORIENTED_EDGE('',*,*,#75,.T.);
#430=ORIENTED_EDGE('',*,*,#105,.T.);
#431=CARTESIAN_POINT('',(1.125,-4.89842541528951E-016,-8.0));
#432=DIRECTION('',(0.0,-6.12303176911189E-017,-1.0));
#433=DIRECTION('',(1.0,0.0,0.0));
#434=CARTESIAN_POINT('',(0.0,3.85751001454049E-016,6.3));
#435=DIRECTION('',(0.0,-6.12303176911189E-017,-1.0));
#436=DIRECTION('',(1.0,0.0,0.0));
#437=CARTESIAN_POINT('',(0.0,4.28612223837832E-016,7.0));
#438=DIRECTION('',(0.0,-6.12303176911189E-017,-1.0));
#439=DIRECTION('',(1.0,0.0,0.0));
#440=SURFACE_STYLE_FILL_AREA(#531);
#441=ORIENTED_EDGE('',*,*,#85,.F.);
#442=ORIENTED_EDGE('',*,*,#71,.F.);
#443=ORIENTED_EDGE('',*,*,#149,.T.);
#444=ORIENTED_EDGE('',*,*,#87,.T.);
#445=CARTESIAN_POINT('',(3.25,0.0,0.0));
#446=DIRECTION('',(0.0,-6.12303176911189E-017,-1.0));
#447=DIRECTION('',(1.0,0.0,0.0));
#448=SURFACE_STYLE_FILL_AREA(#532);
#449=ORIENTED_EDGE('',*,*,#77,.F.);
#450=ORIENTED_EDGE('',*,*,#123,.T.);
#451=ORIENTED_EDGE('',*,*,#151,.F.);
#452=ORIENTED_EDGE('',*,*,#149,.F.);
#453=CARTESIAN_POINT('',(0.0,1.92875500727024E-016,3.15));
#454=DIRECTION('',(-0.0,6.12303176911189E-017,1.0));
#455=DIRECTION('',(1.0,0.0,0.0));
#456=SURFACE_STYLE_FILL_AREA(#533);
#457=ORIENTED_EDGE('',*,*,#109,.T.);
#458=ORIENTED_EDGE('',*,*,#69,.F.);
#459=ORIENTED_EDGE('',*,*,#147,.T.);
#460=ORIENTED_EDGE('',*,*,#71,.T.);
#461=CARTESIAN_POINT('',(0.0,-2.06652322207526E-016,-3.375));
#462=DIRECTION('',(-0.0,6.12303176911189E-017,1.0));
#463=DIRECTION('',(1.0,0.0,0.0));
#464=CARTESIAN_POINT('',(0.0,-4.89842541528951E-016,-8.0));
#465=DIRECTION('',(0.0,-6.12303176911189E-017,-1.0));
#466=DIRECTION('',(1.0,0.0,0.0));
#467=DIRECTION('',(0.707106781186547,1.2988911856079E-016,0.707106781186548));
#468=DIRECTION('',(0.0,-6.12303176911189E-017,-1.0));
#469=CARTESIAN_POINT('',(0.0,4.28612223837832E-016,7.0));
#470=DIRECTION('',(0.0,-6.12303176911189E-017,-1.0));
#471=DIRECTION('',(1.0,0.0,0.0));
#472=SURFACE_STYLE_FILL_AREA(#534);
#473=ORIENTED_EDGE('',*,*,#109,.F.);
#474=ORIENTED_EDGE('',*,*,#85,.T.);
#475=ORIENTED_EDGE('',*,*,#147,.F.);
#476=ORIENTED_EDGE('',*,*,#73,.F.);
#477=CARTESIAN_POINT('',(0.0,-2.06652322207526E-016,-3.375));
#478=DIRECTION('',(-0.0,6.12303176911189E-017,1.0));
#479=DIRECTION('',(1.0,0.0,0.0));
#480=SURFACE_STYLE_FILL_AREA(#535);
#481=ORIENTED_EDGE('',*,*,#125,.F.);
#482=ORIENTED_EDGE('',*,*,#111,.T.);
#483=ORIENTED_EDGE('',*,*,#107,.F.);
#484=ORIENTED_EDGE('',*,*,#123,.F.);
#485=CARTESIAN_POINT('',(0.0,4.0718161264594E-016,6.65));
#486=DIRECTION('',(0.0,-6.12303176911189E-017,-1.0));
#487=DIRECTION('',(1.0,0.0,0.0));
#488=DIRECTION('',(-0.196116135138184,-8.40577728120578E-017,-0.98058067569092));
#489=CARTESIAN_POINT('',(0.0,3.85751001454049E-016,6.3));
#490=DIRECTION('',(0.0,-6.12303176911189E-017,-1.0));
#491=DIRECTION('',(1.0,0.0,0.0));
#492=DIRECTION('',(0.707106781186547,4.32963728535968E-017,-0.707106781186548));
#493=SURFACE_STYLE_FILL_AREA(#536);
#494=ORIENTED_EDGE('',*,*,#125,.T.);
#495=ORIENTED_EDGE('',*,*,#93,.F.);
#496=ORIENTED_EDGE('',*,*,#107,.T.);
#497=ORIENTED_EDGE('',*,*,#95,.T.);
#498=CARTESIAN_POINT('',(0.0,4.0718161264594E-016,6.65));
#499=DIRECTION('',(0.0,-6.12303176911189E-017,-1.0));
#500=DIRECTION('',(1.0,0.0,0.0));
#501=SURFACE_STYLE_FILL_AREA(#537);
#502=ORIENTED_EDGE('',*,*,#111,.F.);
#503=ORIENTED_EDGE('',*,*,#95,.F.);
#504=CARTESIAN_POINT('',(1.65,4.28612223837832E-016,7.0));
#505=DIRECTION('',(0.0,6.12303176911189E-017,1.0));
#506=DIRECTION('',(-1.0,0.0,0.0));
#507=DIRECTION('',(-0.196116135138184,3.60247597765962E-017,0.98058067569092));
#508=SURFACE_STYLE_FILL_AREA(#538);
#509=ORIENTED_EDGE('',*,*,#77,.T.);
#510=ORIENTED_EDGE('',*,*,#87,.F.);
#511=ORIENTED_EDGE('',*,*,#151,.T.);
#512=ORIENTED_EDGE('',*,*,#93,.T.);
#513=CARTESIAN_POINT('',(0.0,1.92875500727024E-016,3.15));
#514=DIRECTION('',(-0.0,6.12303176911189E-017,1.0));
#515=DIRECTION('',(1.0,0.0,0.0));
#516=SURFACE_STYLE_FILL_AREA(#539);
#517=ORIENTED_EDGE('',*,*,#121,.F.);
#518=ORIENTED_EDGE('',*,*,#73,.T.);
#519=ORIENTED_EDGE('',*,*,#133,.F.);
#520=ORIENTED_EDGE('',*,*,#75,.F.);
#521=CARTESIAN_POINT('',(0.0,-4.51573592972002E-016,-7.375));
#522=DIRECTION('',(-0.0,6.12303176911189E-017,1.0));
#523=DIRECTION('',(1.0,0.0,0.0));
#524=DIRECTION('',(-0.0,6.12303176911189E-017,1.0));
#525=CARTESIAN_POINT('',(0.0,0.0,0.0));
#526=DIRECTION('',(0.0,-6.12303176911189E-017,-1.0));
#527=DIRECTION('',(1.0,0.0,0.0));
#528=DIRECTION('',(-0.0,6.12303176911189E-017,1.0));
#529=FILL_AREA_STYLE('',(#540));
#530=FILL_AREA_STYLE('',(#541));
#531=FILL_AREA_STYLE('',(#542));
#532=FILL_AREA_STYLE('',(#543));
#533=FILL_AREA_STYLE('',(#544));
#534=FILL_AREA_STYLE('',(#545));
#535=FILL_AREA_STYLE('',(#546));
#536=FILL_AREA_STYLE('',(#547));
#537=FILL_AREA_STYLE('',(#548));
#538=FILL_AREA_STYLE('',(#549));
#539=FILL_AREA_STYLE('',(#550));
#540=FILL_AREA_STYLE_COLOUR('',#551);
#541=FILL_AREA_STYLE_COLOUR('',#552);
#542=FILL_AREA_STYLE_COLOUR('',#553);
#543=FILL_AREA_STYLE_COLOUR('',#554);
#544=FILL_AREA_STYLE_COLOUR('',#555);
#545=FILL_AREA_STYLE_COLOUR('',#556);
#546=FILL_AREA_STYLE_COLOUR('',#557);
#547=FILL_AREA_STYLE_COLOUR('',#558);
#548=FILL_AREA_STYLE_COLOUR('',#559);
#549=FILL_AREA_STYLE_COLOUR('',#560);
#550=FILL_AREA_STYLE_COLOUR('',#561);
#551=COLOUR_RGB('',0.509803950786591,0.509803950786591,0.588235318660736);
#552=COLOUR_RGB('',0.509803950786591,0.509803950786591,0.588235318660736);
#553=COLOUR_RGB('',0.509803950786591,0.509803950786591,0.588235318660736);
#554=COLOUR_RGB('',0.509803950786591,0.509803950786591,0.588235318660736);
#555=COLOUR_RGB('',0.509803950786591,0.509803950786591,0.588235318660736);
#556=COLOUR_RGB('',0.509803950786591,0.509803950786591,0.588235318660736);
#557=COLOUR_RGB('',0.509803950786591,0.509803950786591,0.588235318660736);
#558=COLOUR_RGB('',0.509803950786591,0.509803950786591,0.588235318660736);
#559=COLOUR_RGB('',0.509803950786591,0.509803950786591,0.588235318660736);
#560=COLOUR_RGB('',0.509803950786591,0.509803950786591,0.588235318660736);
#561=COLOUR_RGB('',0.509803950786591,0.509803950786591,0.588235318660736);
ENDSEC;
END-ISO-10303-21;
