ISO-10303-21;
HEADER;
FILE_DESCRIPTION(('STEP AP214'),'1');
FILE_NAME(' ','  ',('TraceParts'),('TraceParts S.A.'),'XStep 1.0',' ',' ');
FILE_SCHEMA(('automotive_design'));
ENDSEC;
DATA;
#1=MECHANICAL_DESIGN_GEOMETRIC_PRESENTATION_REPRESENTATION(' ',(#10,#11,#12,#13,#14,#15,#16,#17,#18,#19,#20,#21,#22,#23,#24,#25,#26,#27,#28,#29,#30,#31,#32,#33,#34,#35,#36,#37,#38,#39,#40,#41,#42,#43,#44,#45,#46,#47,#48,#49,#50,#51,#52),#6);
#2=PRODUCT_DEFINITION_CONTEXT('',#53,'design');
#3=APPLICATION_PROTOCOL_DEFINITION('INTERNATIONAL STANDARD','automotive_design',1994,#53);
#4=PRODUCT_CATEGORY_RELATIONSHIP('NONE','NONE',#54,#55);
#5=SHAPE_DEFINITION_REPRESENTATION(#56,#57);
#6= (GEOMETRIC_REPRESENTATION_CONTEXT(3)GLOBAL_UNCERTAINTY_ASSIGNED_CONTEXT((#60))GLOBAL_UNIT_ASSIGNED_CONTEXT((#62,#63,#64))REPRESENTATION_CONTEXT('NONE','WORKSPACE'));
#10=STYLED_ITEM('',(#66),#67);
#11=STYLED_ITEM('',(#68),#69);
#12=STYLED_ITEM('',(#70),#71);
#13=STYLED_ITEM('',(#72),#73);
#14=STYLED_ITEM('',(#74),#75);
#15=STYLED_ITEM('',(#76),#77);
#16=STYLED_ITEM('',(#78),#79);
#17=STYLED_ITEM('',(#80),#81);
#18=STYLED_ITEM('',(#82),#83);
#19=STYLED_ITEM('',(#84),#85);
#20=STYLED_ITEM('',(#86),#87);
#21=STYLED_ITEM('',(#88),#89);
#22=STYLED_ITEM('',(#90),#91);
#23=STYLED_ITEM('',(#92),#93);
#24=STYLED_ITEM('',(#94),#95);
#25=STYLED_ITEM('',(#96),#97);
#26=STYLED_ITEM('',(#98),#99);
#27=STYLED_ITEM('',(#100),#101);
#28=STYLED_ITEM('',(#102),#103);
#29=STYLED_ITEM('',(#104),#105);
#30=STYLED_ITEM('',(#106),#107);
#31=STYLED_ITEM('',(#108),#109);
#32=STYLED_ITEM('',(#110),#111);
#33=STYLED_ITEM('',(#112),#113);
#34=STYLED_ITEM('',(#114),#115);
#35=STYLED_ITEM('',(#116),#117);
#36=STYLED_ITEM('',(#118),#119);
#37=STYLED_ITEM('',(#120),#121);
#38=STYLED_ITEM('',(#122),#123);
#39=STYLED_ITEM('',(#124),#125);
#40=STYLED_ITEM('',(#126),#127);
#41=STYLED_ITEM('',(#128),#129);
#42=STYLED_ITEM('',(#130),#131);
#43=STYLED_ITEM('',(#132),#133);
#44=STYLED_ITEM('',(#134),#135);
#45=STYLED_ITEM('',(#136),#137);
#46=STYLED_ITEM('',(#138),#139);
#47=STYLED_ITEM('',(#140),#141);
#48=STYLED_ITEM('',(#142),#143);
#49=STYLED_ITEM('',(#144),#145);
#50=STYLED_ITEM('',(#146),#147);
#51=STYLED_ITEM('',(#148),#149);
#52=STYLED_ITEM('',(#150),#151);
#53=APPLICATION_CONTEXT(' ');
#54=PRODUCT_CATEGORY('part','NONE');
#55=PRODUCT_RELATED_PRODUCT_CATEGORY('detail',' ',(#152));
#56=PRODUCT_DEFINITION_SHAPE('NONE','NONE',#153);
#57=ADVANCED_BREP_SHAPE_REPRESENTATION('1',(#154,#155),#6);
#60=UNCERTAINTY_MEASURE_WITH_UNIT(LENGTH_MEASURE(1.0E-006),#62,'','');
#62= (CONVERSION_BASED_UNIT('MILLIMETRE',#158)LENGTH_UNIT()NAMED_UNIT(#161));
#63= (NAMED_UNIT(#163)PLANE_ANGLE_UNIT()SI_UNIT($,.RADIAN.));
#64= (NAMED_UNIT(#163)SOLID_ANGLE_UNIT()SI_UNIT($,.STERADIAN.));
#66=PRESENTATION_STYLE_ASSIGNMENT((#169));
#67=ADVANCED_FACE('',(#170),#171,.T.);
#68=PRESENTATION_STYLE_ASSIGNMENT((#172));
#69=EDGE_CURVE('',#73,#71,#173,.T.);
#70=PRESENTATION_STYLE_ASSIGNMENT((#174));
#71=VERTEX_POINT('',#175);
#72=PRESENTATION_STYLE_ASSIGNMENT((#176));
#73=VERTEX_POINT('',#177);
#74=PRESENTATION_STYLE_ASSIGNMENT((#178));
#75=EDGE_CURVE('',#97,#103,#179,.T.);
#76=PRESENTATION_STYLE_ASSIGNMENT((#180));
#77=VERTEX_POINT('',#181);
#78=PRESENTATION_STYLE_ASSIGNMENT((#182));
#79=VERTEX_POINT('',#183);
#80=PRESENTATION_STYLE_ASSIGNMENT((#184));
#81=ADVANCED_FACE('',(#185),#186,.T.);
#82=PRESENTATION_STYLE_ASSIGNMENT((#187));
#83=ADVANCED_FACE('',(#188),#189,.T.);
#84=PRESENTATION_STYLE_ASSIGNMENT((#190));
#85=EDGE_CURVE('',#139,#135,#191,.T.);
#86=PRESENTATION_STYLE_ASSIGNMENT((#192));
#87=VERTEX_POINT('',#193);
#88=PRESENTATION_STYLE_ASSIGNMENT((#194));
#89=ADVANCED_FACE('',(#195),#196,.T.);
#90=PRESENTATION_STYLE_ASSIGNMENT((#197));
#91=ADVANCED_FACE('',(#198,#199),#200,.T.);
#92=PRESENTATION_STYLE_ASSIGNMENT((#201));
#93=ADVANCED_FACE('',(#202),#203,.T.);
#94=PRESENTATION_STYLE_ASSIGNMENT((#204));
#95=ADVANCED_FACE('',(#205),#206,.T.);
#96=PRESENTATION_STYLE_ASSIGNMENT((#207));
#97=VERTEX_POINT('',#208);
#98=PRESENTATION_STYLE_ASSIGNMENT((#209));
#99=EDGE_CURVE('',#109,#71,#210,.T.);
#100=PRESENTATION_STYLE_ASSIGNMENT((#211));
#101=EDGE_CURVE('',#139,#109,#212,.T.);
#102=PRESENTATION_STYLE_ASSIGNMENT((#213));
#103=VERTEX_POINT('',#214);
#104=PRESENTATION_STYLE_ASSIGNMENT((#215));
#105=EDGE_CURVE('',#109,#151,#216,.T.);
#106=PRESENTATION_STYLE_ASSIGNMENT((#217));
#107=ADVANCED_FACE('',(#218),#219,.T.);
#108=PRESENTATION_STYLE_ASSIGNMENT((#220));
#109=VERTEX_POINT('',#221);
#110=PRESENTATION_STYLE_ASSIGNMENT((#222));
#111=EDGE_CURVE('',#151,#135,#223,.T.);
#112=PRESENTATION_STYLE_ASSIGNMENT((#224));
#113=EDGE_CURVE('',#71,#73,#225,.T.);
#114=PRESENTATION_STYLE_ASSIGNMENT((#226));
#115=EDGE_CURVE('',#79,#77,#227,.T.);
#116=PRESENTATION_STYLE_ASSIGNMENT((#228));
#117=EDGE_CURVE('',#135,#139,#229,.T.);
#118=PRESENTATION_STYLE_ASSIGNMENT((#230));
#119=EDGE_CURVE('',#73,#151,#231,.T.);
#120=PRESENTATION_STYLE_ASSIGNMENT((#232));
#121=EDGE_CURVE('',#79,#137,#233,.T.);
#122=PRESENTATION_STYLE_ASSIGNMENT((#234));
#123=ADVANCED_FACE('',(#235),#236,.T.);
#124=PRESENTATION_STYLE_ASSIGNMENT((#237));
#125=EDGE_CURVE('',#87,#77,#238,.T.);
#126=PRESENTATION_STYLE_ASSIGNMENT((#239));
#127=EDGE_CURVE('',#137,#87,#240,.T.);
#128=PRESENTATION_STYLE_ASSIGNMENT((#241));
#129=EDGE_CURVE('',#87,#137,#242,.T.);
#130=PRESENTATION_STYLE_ASSIGNMENT((#243));
#131=EDGE_CURVE('',#151,#109,#244,.T.);
#132=PRESENTATION_STYLE_ASSIGNMENT((#245));
#133=ADVANCED_FACE('',(#246),#247,.T.);
#134=PRESENTATION_STYLE_ASSIGNMENT((#248));
#135=VERTEX_POINT('',#249);
#136=PRESENTATION_STYLE_ASSIGNMENT((#250));
#137=VERTEX_POINT('',#251);
#138=PRESENTATION_STYLE_ASSIGNMENT((#252));
#139=VERTEX_POINT('',#253);
#140=PRESENTATION_STYLE_ASSIGNMENT((#254));
#141=EDGE_CURVE('',#77,#79,#255,.T.);
#142=PRESENTATION_STYLE_ASSIGNMENT((#256));
#143=EDGE_CURVE('',#103,#97,#257,.T.);
#144=PRESENTATION_STYLE_ASSIGNMENT((#258));
#145=EDGE_CURVE('',#137,#103,#259,.T.);
#146=PRESENTATION_STYLE_ASSIGNMENT((#260));
#147=EDGE_CURVE('',#97,#87,#261,.T.);
#148=PRESENTATION_STYLE_ASSIGNMENT((#262));
#149=ADVANCED_FACE('',(#263),#264,.T.);
#150=PRESENTATION_STYLE_ASSIGNMENT((#265));
#151=VERTEX_POINT('',#266);
#152=PRODUCT('1','1','PART-1-DESC',(#267));
#153=PRODUCT_DEFINITION('NONE','NONE',#268,#2);
#154=MANIFOLD_SOLID_BREP('1',#269);
#155=AXIS2_PLACEMENT_3D('',#270,#271,#272);
#158=LENGTH_MEASURE_WITH_UNIT(LENGTH_MEASURE(1.0),#273);
#161=DIMENSIONAL_EXPONENTS(1.0,0.0,0.0,0.0,0.0,0.0,0.0);
#163=DIMENSIONAL_EXPONENTS(0.0,0.0,0.0,0.0,0.0,0.0,0.0);
#169=SURFACE_STYLE_USAGE(.BOTH.,#274);
#170=FACE_OUTER_BOUND('',#275,.T.);
#171=CONICAL_SURFACE('',#276,1.9,0.197395559849881);
#172=CURVE_STYLE('',#277,POSITIVE_LENGTH_MEASURE(1.0E-006),#278);
#173=CIRCLE('',#279,2.0);
#174=POINT_STYLE(' ',#280,POSITIVE_LENGTH_MEASURE(1.0E-006),#281);
#175=CARTESIAN_POINT('',(-2.0,-2.44921270764475E-016,1.49966072182214E-032));
#176=POINT_STYLE(' ',#282,POSITIVE_LENGTH_MEASURE(1.0E-006),#283);
#177=CARTESIAN_POINT('',(2.0,0.0,0.0));
#178=CURVE_STYLE('',#284,POSITIVE_LENGTH_MEASURE(1.0E-006),#285);
#179=CIRCLE('',#286,2.75);
#180=POINT_STYLE(' ',#287,POSITIVE_LENGTH_MEASURE(1.0E-006),#288);
#181=CARTESIAN_POINT('',(3.0,0.0,0.0));
#182=POINT_STYLE(' ',#289,POSITIVE_LENGTH_MEASURE(1.0E-006),#290);
#183=CARTESIAN_POINT('',(-3.0,-3.67381906146713E-016,2.24949108273321E-032));
#184=SURFACE_STYLE_USAGE(.BOTH.,#291);
#185=FACE_OUTER_BOUND('',#292,.T.);
#186=PLANE('',#293);
#187=SURFACE_STYLE_USAGE(.BOTH.,#294);
#188=FACE_OUTER_BOUND('',#295,.T.);
#189=CONICAL_SURFACE('',#296,2.875,0.785398163397448);
#190=CURVE_STYLE('',#297,POSITIVE_LENGTH_MEASURE(1.0E-006),#298);
#191=CIRCLE('',#299,1.8);
#192=POINT_STYLE(' ',#300,POSITIVE_LENGTH_MEASURE(1.0E-006),#301);
#193=CARTESIAN_POINT('',(3.0,1.37768214805017E-016,2.25));
#194=SURFACE_STYLE_USAGE(.BOTH.,#302);
#195=FACE_OUTER_BOUND('',#303,.T.);
#196=CYLINDRICAL_SURFACE('',#304,3.0);
#197=SURFACE_STYLE_USAGE(.BOTH.,#305);
#198=FACE_BOUND('',#306,.T.);
#199=FACE_OUTER_BOUND('',#307,.T.);
#200=PLANE('',#308);
#201=SURFACE_STYLE_USAGE(.BOTH.,#309);
#202=FACE_OUTER_BOUND('',#310,.T.);
#203=PLANE('',#311);
#204=SURFACE_STYLE_USAGE(.BOTH.,#312);
#205=FACE_OUTER_BOUND('',#313,.T.);
#206=CYLINDRICAL_SURFACE('',#314,2.0);
#207=POINT_STYLE(' ',#315,POSITIVE_LENGTH_MEASURE(1.0E-006),#316);
#208=CARTESIAN_POINT('',(2.75,1.53075794227797E-016,2.5));
#209=CURVE_STYLE('',#317,POSITIVE_LENGTH_MEASURE(1.0E-006),#318);
#210=LINE('',#319,#320);
#211=CURVE_STYLE('',#321,POSITIVE_LENGTH_MEASURE(1.0E-006),#322);
#212=LINE('',#323,#324);
#213=POINT_STYLE(' ',#325,POSITIVE_LENGTH_MEASURE(1.0E-006),#326);
#214=CARTESIAN_POINT('',(-2.75,-1.83690953073357E-016,2.5));
#215=CURVE_STYLE('',#327,POSITIVE_LENGTH_MEASURE(1.0E-006),#328);
#216=CIRCLE('',#329,2.0);
#217=SURFACE_STYLE_USAGE(.BOTH.,#330);
#218=FACE_OUTER_BOUND('',#331,.T.);
#219=CONICAL_SURFACE('',#332,2.875,0.785398163397448);
#220=POINT_STYLE(' ',#333,POSITIVE_LENGTH_MEASURE(1.0E-006),#334);
#221=CARTESIAN_POINT('',(-2.0,-5.81688018065629E-016,-5.5));
#222=CURVE_STYLE('',#335,POSITIVE_LENGTH_MEASURE(1.0E-006),#336);
#223=LINE('',#337,#338);
#224=CURVE_STYLE('',#339,POSITIVE_LENGTH_MEASURE(1.0E-006),#340);
#225=CIRCLE('',#341,2.0);
#226=CURVE_STYLE('',#342,POSITIVE_LENGTH_MEASURE(1.0E-006),#343);
#227=CIRCLE('',#344,3.0);
#228=CURVE_STYLE('',#345,POSITIVE_LENGTH_MEASURE(1.0E-006),#346);
#229=CIRCLE('',#347,1.8);
#230=CURVE_STYLE('',#348,POSITIVE_LENGTH_MEASURE(1.0E-006),#349);
#231=LINE('',#350,#351);
#232=CURVE_STYLE('',#352,POSITIVE_LENGTH_MEASURE(1.0E-006),#353);
#233=LINE('',#354,#355);
#234=SURFACE_STYLE_USAGE(.BOTH.,#356);
#235=FACE_OUTER_BOUND('',#357,.T.);
#236=CYLINDRICAL_SURFACE('',#358,3.0);
#237=CURVE_STYLE('',#359,POSITIVE_LENGTH_MEASURE(1.0E-006),#360);
#238=LINE('',#361,#362);
#239=CURVE_STYLE('',#363,POSITIVE_LENGTH_MEASURE(1.0E-006),#364);
#240=CIRCLE('',#365,3.0);
#241=CURVE_STYLE('',#366,POSITIVE_LENGTH_MEASURE(1.0E-006),#367);
#242=CIRCLE('',#368,3.0);
#243=CURVE_STYLE('',#369,POSITIVE_LENGTH_MEASURE(1.0E-006),#370);
#244=CIRCLE('',#371,2.0);
#245=SURFACE_STYLE_USAGE(.BOTH.,#372);
#246=FACE_OUTER_BOUND('',#373,.T.);
#247=CONICAL_SURFACE('',#374,1.9,0.197395559849881);
#248=POINT_STYLE(' ',#375,POSITIVE_LENGTH_MEASURE(1.0E-006),#376);
#249=CARTESIAN_POINT('',(1.8,-3.97997064992273E-016,-6.5));
#250=POINT_STYLE(' ',#377,POSITIVE_LENGTH_MEASURE(1.0E-006),#378);
#251=CARTESIAN_POINT('',(-3.0,-2.29613691341696E-016,2.25));
#252=POINT_STYLE(' ',#379,POSITIVE_LENGTH_MEASURE(1.0E-006),#380);
#253=CARTESIAN_POINT('',(-1.8,-6.184262086803E-016,-6.5));
#254=CURVE_STYLE('',#381,POSITIVE_LENGTH_MEASURE(1.0E-006),#382);
#255=CIRCLE('',#383,3.0);
#256=CURVE_STYLE('',#384,POSITIVE_LENGTH_MEASURE(1.0E-006),#385);
#257=CIRCLE('',#386,2.75);
#258=CURVE_STYLE('',#387,POSITIVE_LENGTH_MEASURE(1.0E-006),#388);
#259=LINE('',#389,#390);
#260=CURVE_STYLE('',#391,POSITIVE_LENGTH_MEASURE(1.0E-006),#392);
#261=LINE('',#393,#394);
#262=SURFACE_STYLE_USAGE(.BOTH.,#395);
#263=FACE_OUTER_BOUND('',#396,.T.);
#264=CYLINDRICAL_SURFACE('',#397,2.0);
#265=POINT_STYLE(' ',#398,POSITIVE_LENGTH_MEASURE(1.0E-006),#399);
#266=CARTESIAN_POINT('',(2.0,-3.36766747301154E-016,-5.5));
#267=PRODUCT_CONTEXT('',#53,'mechanical');
#268=PRODUCT_DEFINITION_FORMATION_WITH_SPECIFIED_SOURCE(' ','NONE',#152,.NOT_KNOWN.);
#269=CLOSED_SHELL('',(#67,#149,#89,#83,#81,#107,#123,#91,#95,#133,#93));
#270=CARTESIAN_POINT('',(0.0,0.0,0.0));
#271=DIRECTION('',(0.0,0.0,1.0));
#272=DIRECTION('',(1.0,0.0,0.0));
#273= (NAMED_UNIT(#161)LENGTH_UNIT()SI_UNIT(.MILLI.,.METRE.));
#274=SURFACE_SIDE_STYLE('',(#401));
#275=EDGE_LOOP('',(#402,#403,#404,#405));
#276=AXIS2_PLACEMENT_3D('',#406,#407,#408);
#277=DRAUGHTING_PRE_DEFINED_CURVE_FONT('continuous');
#278=COLOUR_RGB('',0.509803950786591,0.509803950786591,0.588235318660736);
#279=AXIS2_PLACEMENT_3D('',#409,#410,#411);
#280=PRE_DEFINED_MARKER('');
#281=COLOUR_RGB('',0.509803950786591,0.509803950786591,0.588235318660736);
#282=PRE_DEFINED_MARKER('');
#283=COLOUR_RGB('',0.509803950786591,0.509803950786591,0.588235318660736);
#284=DRAUGHTING_PRE_DEFINED_CURVE_FONT('continuous');
#285=COLOUR_RGB('',0.509803950786591,0.509803950786591,0.588235318660736);
#286=AXIS2_PLACEMENT_3D('',#412,#413,#414);
#287=PRE_DEFINED_MARKER('');
#288=COLOUR_RGB('',0.509803950786591,0.509803950786591,0.588235318660736);
#289=PRE_DEFINED_MARKER('');
#290=COLOUR_RGB('',0.509803950786591,0.509803950786591,0.588235318660736);
#291=SURFACE_SIDE_STYLE('',(#415));
#292=EDGE_LOOP('',(#416,#417));
#293=AXIS2_PLACEMENT_3D('',#418,#419,#420);
#294=SURFACE_SIDE_STYLE('',(#421));
#295=EDGE_LOOP('',(#422,#423,#424,#425));
#296=AXIS2_PLACEMENT_3D('',#426,#427,#428);
#297=DRAUGHTING_PRE_DEFINED_CURVE_FONT('continuous');
#298=COLOUR_RGB('',0.509803950786591,0.509803950786591,0.588235318660736);
#299=AXIS2_PLACEMENT_3D('',#429,#430,#431);
#300=PRE_DEFINED_MARKER('');
#301=COLOUR_RGB('',0.509803950786591,0.509803950786591,0.588235318660736);
#302=SURFACE_SIDE_STYLE('',(#432));
#303=EDGE_LOOP('',(#433,#434,#435,#436));
#304=AXIS2_PLACEMENT_3D('',#437,#438,#439);
#305=SURFACE_SIDE_STYLE('',(#440));
#306=EDGE_LOOP('',(#441,#442));
#307=EDGE_LOOP('',(#443,#444));
#308=AXIS2_PLACEMENT_3D('',#445,#446,#447);
#309=SURFACE_SIDE_STYLE('',(#448));
#310=EDGE_LOOP('',(#449,#450));
#311=AXIS2_PLACEMENT_3D('',#451,#452,#453);
#312=SURFACE_SIDE_STYLE('',(#454));
#313=EDGE_LOOP('',(#455,#456,#457,#458));
#314=AXIS2_PLACEMENT_3D('',#459,#460,#461);
#315=PRE_DEFINED_MARKER('');
#316=COLOUR_RGB('',0.509803950786591,0.509803950786591,0.588235318660736);
#317=DRAUGHTING_PRE_DEFINED_CURVE_FONT('continuous');
#318=COLOUR_RGB('',0.509803950786591,0.509803950786591,0.588235318660736);
#319=CARTESIAN_POINT('',(-2.0,-4.13304644415052E-016,-2.75));
#320=VECTOR('',#462,1.0);
#321=DRAUGHTING_PRE_DEFINED_CURVE_FONT('continuous');
#322=COLOUR_RGB('',0.509803950786591,0.509803950786591,0.588235318660736);
#323=CARTESIAN_POINT('',(-1.9,-6.00057113372965E-016,-6.0));
#324=VECTOR('',#463,1.0);
#325=PRE_DEFINED_MARKER('');
#326=COLOUR_RGB('',0.509803950786591,0.509803950786591,0.588235318660736);
#327=DRAUGHTING_PRE_DEFINED_CURVE_FONT('continuous');
#328=COLOUR_RGB('',0.509803950786591,0.509803950786591,0.588235318660736);
#329=AXIS2_PLACEMENT_3D('',#464,#465,#466);
#330=SURFACE_SIDE_STYLE('',(#467));
#331=EDGE_LOOP('',(#468,#469,#470,#471));
#332=AXIS2_PLACEMENT_3D('',#472,#473,#474);
#333=PRE_DEFINED_MARKER('');
#334=COLOUR_RGB('',0.509803950786591,0.509803950786591,0.588235318660736);
#335=DRAUGHTING_PRE_DEFINED_CURVE_FONT('continuous');
#336=COLOUR_RGB('',0.509803950786591,0.509803950786591,0.588235318660736);
#337=CARTESIAN_POINT('',(1.9,-1.34706698920462E-016,-6.0));
#338=VECTOR('',#475,1.0);
#339=DRAUGHTING_PRE_DEFINED_CURVE_FONT('continuous');
#340=COLOUR_RGB('',0.509803950786591,0.509803950786591,0.588235318660736);
#341=AXIS2_PLACEMENT_3D('',#476,#477,#478);
#342=DRAUGHTING_PRE_DEFINED_CURVE_FONT('continuous');
#343=COLOUR_RGB('',0.509803950786591,0.509803950786591,0.588235318660736);
#344=AXIS2_PLACEMENT_3D('',#479,#480,#481);
#345=DRAUGHTING_PRE_DEFINED_CURVE_FONT('continuous');
#346=COLOUR_RGB('',0.509803950786591,0.509803950786591,0.588235318660736);
#347=AXIS2_PLACEMENT_3D('',#482,#483,#484);
#348=DRAUGHTING_PRE_DEFINED_CURVE_FONT('continuous');
#349=COLOUR_RGB('',0.509803950786591,0.509803950786591,0.588235318660736);
#350=CARTESIAN_POINT('',(2.0,7.65378971138986E-017,-2.75));
#351=VECTOR('',#485,1.0);
#352=DRAUGHTING_PRE_DEFINED_CURVE_FONT('continuous');
#353=COLOUR_RGB('',0.509803950786591,0.509803950786591,0.588235318660736);
#354=CARTESIAN_POINT('',(-3.0,-2.98497798744204E-016,1.125));
#355=VECTOR('',#486,1.0);
#356=SURFACE_SIDE_STYLE('',(#487));
#357=EDGE_LOOP('',(#488,#489,#490,#491));
#358=AXIS2_PLACEMENT_3D('',#492,#493,#494);
#359=DRAUGHTING_PRE_DEFINED_CURVE_FONT('continuous');
#360=COLOUR_RGB('',0.509803950786591,0.509803950786591,0.588235318660736);
#361=CARTESIAN_POINT('',(3.0,4.36266013549222E-016,1.125));
#362=VECTOR('',#495,1.0);
#363=DRAUGHTING_PRE_DEFINED_CURVE_FONT('continuous');
#364=COLOUR_RGB('',0.509803950786591,0.509803950786591,0.588235318660736);
#365=AXIS2_PLACEMENT_3D('',#496,#497,#498);
#366=DRAUGHTING_PRE_DEFINED_CURVE_FONT('continuous');
#367=COLOUR_RGB('',0.509803950786591,0.509803950786591,0.588235318660736);
#368=AXIS2_PLACEMENT_3D('',#499,#500,#501);
#369=DRAUGHTING_PRE_DEFINED_CURVE_FONT('continuous');
#370=COLOUR_RGB('',0.509803950786591,0.509803950786591,0.588235318660736);
#371=AXIS2_PLACEMENT_3D('',#502,#503,#504);
#372=SURFACE_SIDE_STYLE('',(#505));
#373=EDGE_LOOP('',(#506,#507,#508,#509));
#374=AXIS2_PLACEMENT_3D('',#510,#511,#512);
#375=PRE_DEFINED_MARKER('');
#376=COLOUR_RGB('',0.509803950786591,0.509803950786591,0.588235318660736);
#377=PRE_DEFINED_MARKER('');
#378=COLOUR_RGB('',0.509803950786591,0.509803950786591,0.588235318660736);
#379=PRE_DEFINED_MARKER('');
#380=COLOUR_RGB('',0.509803950786591,0.509803950786591,0.588235318660736);
#381=DRAUGHTING_PRE_DEFINED_CURVE_FONT('continuous');
#382=COLOUR_RGB('',0.509803950786591,0.509803950786591,0.588235318660736);
#383=AXIS2_PLACEMENT_3D('',#513,#514,#515);
#384=DRAUGHTING_PRE_DEFINED_CURVE_FONT('continuous');
#385=COLOUR_RGB('',0.509803950786591,0.509803950786591,0.588235318660736);
#386=AXIS2_PLACEMENT_3D('',#516,#517,#518);
#387=DRAUGHTING_PRE_DEFINED_CURVE_FONT('continuous');
#388=COLOUR_RGB('',0.509803950786591,0.509803950786591,0.588235318660736);
#389=CARTESIAN_POINT('',(-2.875,-2.06652322207526E-016,2.375));
#390=VECTOR('',#519,1.0);
#391=DRAUGHTING_PRE_DEFINED_CURVE_FONT('continuous');
#392=COLOUR_RGB('',0.509803950786591,0.509803950786591,0.588235318660736);
#393=CARTESIAN_POINT('',(2.875,4.97496331240341E-016,2.375));
#394=VECTOR('',#520,1.0);
#395=SURFACE_SIDE_STYLE('',(#521));
#396=EDGE_LOOP('',(#522,#523,#524,#525));
#397=AXIS2_PLACEMENT_3D('',#526,#527,#528);
#398=PRE_DEFINED_MARKER('');
#399=COLOUR_RGB('',0.509803950786591,0.509803950786591,0.588235318660736);
#401=SURFACE_STYLE_FILL_AREA(#529);
#402=ORIENTED_EDGE('',*,*,#111,.F.);
#403=ORIENTED_EDGE('',*,*,#131,.T.);
#404=ORIENTED_EDGE('',*,*,#101,.F.);
#405=ORIENTED_EDGE('',*,*,#117,.F.);
#406=CARTESIAN_POINT('',(0.0,-3.67381906146713E-016,-6.0));
#407=DIRECTION('',(-0.0,6.12303176911189E-017,1.0));
#408=DIRECTION('',(1.0,0.0,0.0));
#409=CARTESIAN_POINT('',(0.0,0.0,0.0));
#410=DIRECTION('',(0.0,-6.12303176911189E-017,-1.0));
#411=DIRECTION('',(1.0,0.0,0.0));
#412=CARTESIAN_POINT('',(0.0,1.53075794227797E-016,2.5));
#413=DIRECTION('',(0.0,-6.12303176911189E-017,-1.0));
#414=DIRECTION('',(1.0,0.0,0.0));
#415=SURFACE_STYLE_FILL_AREA(#530);
#416=ORIENTED_EDGE('',*,*,#75,.F.);
#417=ORIENTED_EDGE('',*,*,#143,.F.);
#418=CARTESIAN_POINT('',(1.375,1.53075794227797E-016,2.5));
#419=DIRECTION('',(0.0,6.12303176911189E-017,1.0));
#420=DIRECTION('',(-1.0,0.0,0.0));
#421=SURFACE_STYLE_FILL_AREA(#531);
#422=ORIENTED_EDGE('',*,*,#147,.F.);
#423=ORIENTED_EDGE('',*,*,#75,.T.);
#424=ORIENTED_EDGE('',*,*,#145,.F.);
#425=ORIENTED_EDGE('',*,*,#129,.F.);
#426=CARTESIAN_POINT('',(0.0,1.45422004516407E-016,2.375));
#427=DIRECTION('',(0.0,-6.12303176911189E-017,-1.0));
#428=DIRECTION('',(1.0,0.0,0.0));
#429=CARTESIAN_POINT('',(0.0,-3.97997064992273E-016,-6.5));
#430=DIRECTION('',(0.0,-6.12303176911189E-017,-1.0));
#431=DIRECTION('',(1.0,0.0,0.0));
#432=SURFACE_STYLE_FILL_AREA(#532);
#433=ORIENTED_EDGE('',*,*,#125,.F.);
#434=ORIENTED_EDGE('',*,*,#129,.T.);
#435=ORIENTED_EDGE('',*,*,#121,.F.);
#436=ORIENTED_EDGE('',*,*,#141,.F.);
#437=CARTESIAN_POINT('',(0.0,6.88841074025087E-017,1.125));
#438=DIRECTION('',(-0.0,6.12303176911189E-017,1.0));
#439=DIRECTION('',(1.0,0.0,0.0));
#440=SURFACE_STYLE_FILL_AREA(#533);
#441=ORIENTED_EDGE('',*,*,#69,.F.);
#442=ORIENTED_EDGE('',*,*,#113,.F.);
#443=ORIENTED_EDGE('',*,*,#141,.T.);
#444=ORIENTED_EDGE('',*,*,#115,.T.);
#445=CARTESIAN_POINT('',(2.5,0.0,0.0));
#446=DIRECTION('',(0.0,-6.12303176911189E-017,-1.0));
#447=DIRECTION('',(1.0,0.0,0.0));
#448=SURFACE_STYLE_FILL_AREA(#534);
#449=ORIENTED_EDGE('',*,*,#117,.T.);
#450=ORIENTED_EDGE('',*,*,#85,.T.);
#451=CARTESIAN_POINT('',(0.9,-3.97997064992273E-016,-6.5));
#452=DIRECTION('',(0.0,-6.12303176911189E-017,-1.0));
#453=DIRECTION('',(1.0,0.0,0.0));
#454=SURFACE_STYLE_FILL_AREA(#535);
#455=ORIENTED_EDGE('',*,*,#119,.T.);
#456=ORIENTED_EDGE('',*,*,#105,.F.);
#457=ORIENTED_EDGE('',*,*,#99,.T.);
#458=ORIENTED_EDGE('',*,*,#113,.T.);
#459=CARTESIAN_POINT('',(0.0,-1.68383373650577E-016,-2.75));
#460=DIRECTION('',(-0.0,6.12303176911189E-017,1.0));
#461=DIRECTION('',(1.0,0.0,0.0));
#462=DIRECTION('',(-0.0,6.12303176911189E-017,1.0));
#463=DIRECTION('',(-0.196116135138184,3.60247597765962E-017,0.98058067569092));
#464=CARTESIAN_POINT('',(0.0,-3.36766747301154E-016,-5.5));
#465=DIRECTION('',(0.0,-6.12303176911189E-017,-1.0));
#466=DIRECTION('',(1.0,0.0,0.0));
#467=SURFACE_STYLE_FILL_AREA(#536);
#468=ORIENTED_EDGE('',*,*,#147,.T.);
#469=ORIENTED_EDGE('',*,*,#127,.F.);
#470=ORIENTED_EDGE('',*,*,#145,.T.);
#471=ORIENTED_EDGE('',*,*,#143,.T.);
#472=CARTESIAN_POINT('',(0.0,1.45422004516407E-016,2.375));
#473=DIRECTION('',(0.0,-6.12303176911189E-017,-1.0));
#474=DIRECTION('',(1.0,0.0,0.0));
#475=DIRECTION('',(-0.196116135138184,-8.40577728120578E-017,-0.98058067569092));
#476=CARTESIAN_POINT('',(0.0,0.0,0.0));
#477=DIRECTION('',(0.0,-6.12303176911189E-017,-1.0));
#478=DIRECTION('',(1.0,0.0,0.0));
#479=CARTESIAN_POINT('',(0.0,0.0,0.0));
#480=DIRECTION('',(0.0,-6.12303176911189E-017,-1.0));
#481=DIRECTION('',(1.0,0.0,0.0));
#482=CARTESIAN_POINT('',(0.0,-3.97997064992273E-016,-6.5));
#483=DIRECTION('',(0.0,-6.12303176911189E-017,-1.0));
#484=DIRECTION('',(1.0,0.0,0.0));
#485=DIRECTION('',(0.0,-6.12303176911189E-017,-1.0));
#486=DIRECTION('',(-0.0,6.12303176911189E-017,1.0));
#487=SURFACE_STYLE_FILL_AREA(#537);
#488=ORIENTED_EDGE('',*,*,#125,.T.);
#489=ORIENTED_EDGE('',*,*,#115,.F.);
#490=ORIENTED_EDGE('',*,*,#121,.T.);
#491=ORIENTED_EDGE('',*,*,#127,.T.);
#492=CARTESIAN_POINT('',(0.0,6.88841074025087E-017,1.125));
#493=DIRECTION('',(-0.0,6.12303176911189E-017,1.0));
#494=DIRECTION('',(1.0,0.0,0.0));
#495=DIRECTION('',(0.0,-6.12303176911189E-017,-1.0));
#496=CARTESIAN_POINT('',(0.0,1.37768214805017E-016,2.25));
#497=DIRECTION('',(0.0,-6.12303176911189E-017,-1.0));
#498=DIRECTION('',(1.0,0.0,0.0));
#499=CARTESIAN_POINT('',(0.0,1.37768214805017E-016,2.25));
#500=DIRECTION('',(0.0,-6.12303176911189E-017,-1.0));
#501=DIRECTION('',(1.0,0.0,0.0));
#502=CARTESIAN_POINT('',(0.0,-3.36766747301154E-016,-5.5));
#503=DIRECTION('',(0.0,-6.12303176911189E-017,-1.0));
#504=DIRECTION('',(1.0,0.0,0.0));
#505=SURFACE_STYLE_FILL_AREA(#538);
#506=ORIENTED_EDGE('',*,*,#111,.T.);
#507=ORIENTED_EDGE('',*,*,#85,.F.);
#508=ORIENTED_EDGE('',*,*,#101,.T.);
#509=ORIENTED_EDGE('',*,*,#105,.T.);
#510=CARTESIAN_POINT('',(0.0,-3.67381906146713E-016,-6.0));
#511=DIRECTION('',(-0.0,6.12303176911189E-017,1.0));
#512=DIRECTION('',(1.0,0.0,0.0));
#513=CARTESIAN_POINT('',(0.0,0.0,0.0));
#514=DIRECTION('',(0.0,-6.12303176911189E-017,-1.0));
#515=DIRECTION('',(1.0,0.0,0.0));
#516=CARTESIAN_POINT('',(0.0,1.53075794227797E-016,2.5));
#517=DIRECTION('',(0.0,-6.12303176911189E-017,-1.0));
#518=DIRECTION('',(1.0,0.0,0.0));
#519=DIRECTION('',(0.707106781186548,1.2988911856079E-016,0.707106781186548));
#520=DIRECTION('',(0.707106781186548,4.32963728535968E-017,-0.707106781186548));
#521=SURFACE_STYLE_FILL_AREA(#539);
#522=ORIENTED_EDGE('',*,*,#119,.F.);
#523=ORIENTED_EDGE('',*,*,#69,.T.);
#524=ORIENTED_EDGE('',*,*,#99,.F.);
#525=ORIENTED_EDGE('',*,*,#131,.F.);
#526=CARTESIAN_POINT('',(0.0,-1.68383373650577E-016,-2.75));
#527=DIRECTION('',(-0.0,6.12303176911189E-017,1.0));
#528=DIRECTION('',(1.0,0.0,0.0));
#529=FILL_AREA_STYLE('',(#540));
#530=FILL_AREA_STYLE('',(#541));
#531=FILL_AREA_STYLE('',(#542));
#532=FILL_AREA_STYLE('',(#543));
#533=FILL_AREA_STYLE('',(#544));
#534=FILL_AREA_STYLE('',(#545));
#535=FILL_AREA_STYLE('',(#546));
#536=FILL_AREA_STYLE('',(#547));
#537=FILL_AREA_STYLE('',(#548));
#538=FILL_AREA_STYLE('',(#549));
#539=FILL_AREA_STYLE('',(#550));
#540=FILL_AREA_STYLE_COLOUR('',#551);
#541=FILL_AREA_STYLE_COLOUR('',#552);
#542=FILL_AREA_STYLE_COLOUR('',#553);
#543=FILL_AREA_STYLE_COLOUR('',#554);
#544=FILL_AREA_STYLE_COLOUR('',#555);
#545=FILL_AREA_STYLE_COLOUR('',#556);
#546=FILL_AREA_STYLE_COLOUR('',#557);
#547=FILL_AREA_STYLE_COLOUR('',#558);
#548=FILL_AREA_STYLE_COLOUR('',#559);
#549=FILL_AREA_STYLE_COLOUR('',#560);
#550=FILL_AREA_STYLE_COLOUR('',#561);
#551=COLOUR_RGB('',0.509803950786591,0.509803950786591,0.588235318660736);
#552=COLOUR_RGB('',0.509803950786591,0.509803950786591,0.588235318660736);
#553=COLOUR_RGB('',0.509803950786591,0.509803950786591,0.588235318660736);
#554=COLOUR_RGB('',0.509803950786591,0.509803950786591,0.588235318660736);
#555=COLOUR_RGB('',0.509803950786591,0.509803950786591,0.588235318660736);
#556=COLOUR_RGB('',0.509803950786591,0.509803950786591,0.588235318660736);
#557=COLOUR_RGB('',0.509803950786591,0.509803950786591,0.588235318660736);
#558=COLOUR_RGB('',0.509803950786591,0.509803950786591,0.588235318660736);
#559=COLOUR_RGB('',0.509803950786591,0.509803950786591,0.588235318660736);
#560=COLOUR_RGB('',0.509803950786591,0.509803950786591,0.588235318660736);
#561=COLOUR_RGB('',0.509803950786591,0.509803950786591,0.588235318660736);
ENDSEC;
END-ISO-10303-21;
