ISO-10303-21;
HEADER;
FILE_DESCRIPTION(('STEP AP214'),'1');
FILE_NAME(' ','  ',('TraceParts'),('TraceParts S.A.'),'XStep 1.0',' ',' ');
FILE_SCHEMA(('automotive_design'));
ENDSEC;
DATA;
#1=MECHANICAL_DESIGN_GEOMETRIC_PRESENTATION_REPRESENTATION(' ',(#10,#11,#12,#13,#14,#15,#16,#17,#18,#19,#20,#21,#22,#23,#24,#25,#26,#27,#28,#29,#30,#31,#32,#33,#34,#35,#36,#37,#38,#39,#40,#41,#42,#43,#44,#45,#46,#47,#48,#49,#50,#51,#52,#53),#6);
#2=PRODUCT_DEFINITION_CONTEXT('',#54,'design');
#3=APPLICATION_PROTOCOL_DEFINITION('INTERNATIONAL STANDARD','automotive_design',1994,#54);
#4=PRODUCT_CATEGORY_RELATIONSHIP('NONE','NONE',#55,#56);
#5=SHAPE_DEFINITION_REPRESENTATION(#57,#58);
#6= (GEOMETRIC_REPRESENTATION_CONTEXT(3)GLOBAL_UNCERTAINTY_ASSIGNED_CONTEXT((#61))GLOBAL_UNIT_ASSIGNED_CONTEXT((#63,#64,#65))REPRESENTATION_CONTEXT('NONE','WORKSPACE'));
#10=STYLED_ITEM('',(#67),#68);
#11=STYLED_ITEM('',(#69),#70);
#12=STYLED_ITEM('',(#71),#72);
#13=STYLED_ITEM('',(#73),#74);
#14=STYLED_ITEM('',(#75),#76);
#15=STYLED_ITEM('',(#77),#78);
#16=STYLED_ITEM('',(#79),#80);
#17=STYLED_ITEM('',(#81),#82);
#18=STYLED_ITEM('',(#83),#84);
#19=STYLED_ITEM('',(#85),#86);
#20=STYLED_ITEM('',(#87),#88);
#21=STYLED_ITEM('',(#89),#90);
#22=STYLED_ITEM('',(#91),#92);
#23=STYLED_ITEM('',(#93),#94);
#24=STYLED_ITEM('',(#95),#96);
#25=STYLED_ITEM('',(#97),#98);
#26=STYLED_ITEM('',(#99),#100);
#27=STYLED_ITEM('',(#101),#102);
#28=STYLED_ITEM('',(#103),#104);
#29=STYLED_ITEM('',(#105),#106);
#30=STYLED_ITEM('',(#107),#108);
#31=STYLED_ITEM('',(#109),#110);
#32=STYLED_ITEM('',(#111),#112);
#33=STYLED_ITEM('',(#113),#114);
#34=STYLED_ITEM('',(#115),#116);
#35=STYLED_ITEM('',(#117),#118);
#36=STYLED_ITEM('',(#119),#120);
#37=STYLED_ITEM('',(#121),#122);
#38=STYLED_ITEM('',(#123),#124);
#39=STYLED_ITEM('',(#125),#126);
#40=STYLED_ITEM('',(#127),#128);
#41=STYLED_ITEM('',(#129),#130);
#42=STYLED_ITEM('',(#131),#132);
#43=STYLED_ITEM('',(#133),#134);
#44=STYLED_ITEM('',(#135),#136);
#45=STYLED_ITEM('',(#137),#138);
#46=STYLED_ITEM('',(#139),#140);
#47=STYLED_ITEM('',(#141),#142);
#48=STYLED_ITEM('',(#143),#144);
#49=STYLED_ITEM('',(#145),#146);
#50=STYLED_ITEM('',(#147),#148);
#51=STYLED_ITEM('',(#149),#150);
#52=STYLED_ITEM('',(#151),#152);
#53=STYLED_ITEM('',(#153),#154);
#54=APPLICATION_CONTEXT(' ');
#55=PRODUCT_CATEGORY('part','NONE');
#56=PRODUCT_RELATED_PRODUCT_CATEGORY('detail',' ',(#155));
#57=PRODUCT_DEFINITION_SHAPE('NONE','NONE',#156);
#58=ADVANCED_BREP_SHAPE_REPRESENTATION('1',(#120,#157),#6);
#61=UNCERTAINTY_MEASURE_WITH_UNIT(LENGTH_MEASURE(1.0E-006),#63,'','');
#63= (CONVERSION_BASED_UNIT('MILLIMETRE',#160)LENGTH_UNIT()NAMED_UNIT(#163));
#64= (NAMED_UNIT(#165)PLANE_ANGLE_UNIT()SI_UNIT($,.RADIAN.));
#65= (NAMED_UNIT(#165)SOLID_ANGLE_UNIT()SI_UNIT($,.STERADIAN.));
#67=PRESENTATION_STYLE_ASSIGNMENT((#171));
#68=EDGE_CURVE('',#146,#126,#172,.T.);
#69=PRESENTATION_STYLE_ASSIGNMENT((#173));
#70=ADVANCED_FACE('',(#174),#175,.T.);
#71=PRESENTATION_STYLE_ASSIGNMENT((#176));
#72=EDGE_CURVE('',#154,#134,#177,.T.);
#73=PRESENTATION_STYLE_ASSIGNMENT((#178));
#74=VERTEX_POINT('',#179);
#75=PRESENTATION_STYLE_ASSIGNMENT((#180));
#76=EDGE_CURVE('',#144,#136,#181,.T.);
#77=PRESENTATION_STYLE_ASSIGNMENT((#182));
#78=EDGE_CURVE('',#146,#144,#183,.T.);
#79=PRESENTATION_STYLE_ASSIGNMENT((#184));
#80=ADVANCED_FACE('',(#185),#186,.T.);
#81=PRESENTATION_STYLE_ASSIGNMENT((#187));
#82=EDGE_CURVE('',#102,#74,#188,.T.);
#83=PRESENTATION_STYLE_ASSIGNMENT((#189));
#84=ADVANCED_FACE('',(#190),#191,.T.);
#85=PRESENTATION_STYLE_ASSIGNMENT((#192));
#86=ADVANCED_FACE('',(#193),#194,.T.);
#87=PRESENTATION_STYLE_ASSIGNMENT((#195));
#88=ADVANCED_FACE('',(#196),#197,.T.);
#89=PRESENTATION_STYLE_ASSIGNMENT((#198));
#90=EDGE_CURVE('',#136,#144,#199,.T.);
#91=PRESENTATION_STYLE_ASSIGNMENT((#200));
#92=EDGE_CURVE('',#154,#114,#201,.T.);
#93=PRESENTATION_STYLE_ASSIGNMENT((#202));
#94=EDGE_CURVE('',#144,#102,#203,.T.);
#95=PRESENTATION_STYLE_ASSIGNMENT((#204));
#96=EDGE_CURVE('',#74,#136,#205,.T.);
#97=PRESENTATION_STYLE_ASSIGNMENT((#206));
#98=ADVANCED_FACE('',(#207),#208,.T.);
#99=PRESENTATION_STYLE_ASSIGNMENT((#209));
#100=EDGE_CURVE('',#134,#110,#210,.T.);
#101=PRESENTATION_STYLE_ASSIGNMENT((#211));
#102=VERTEX_POINT('',#212);
#103=PRESENTATION_STYLE_ASSIGNMENT((#213));
#104=EDGE_CURVE('',#136,#126,#214,.T.);
#105=PRESENTATION_STYLE_ASSIGNMENT((#215));
#106=EDGE_CURVE('',#126,#146,#216,.T.);
#107=PRESENTATION_STYLE_ASSIGNMENT((#217));
#108=ADVANCED_FACE('',(#218),#219,.T.);
#109=PRESENTATION_STYLE_ASSIGNMENT((#220));
#110=VERTEX_POINT('',#221);
#111=PRESENTATION_STYLE_ASSIGNMENT((#222));
#112=EDGE_CURVE('',#138,#150,#223,.T.);
#113=PRESENTATION_STYLE_ASSIGNMENT((#224));
#114=VERTEX_POINT('',#225);
#115=PRESENTATION_STYLE_ASSIGNMENT((#226));
#116=ADVANCED_FACE('',(#227),#228,.T.);
#117=PRESENTATION_STYLE_ASSIGNMENT((#229));
#118=EDGE_CURVE('',#110,#114,#230,.T.);
#119=PRESENTATION_STYLE_ASSIGNMENT((#231));
#120=MANIFOLD_SOLID_BREP('1',#232);
#121=PRESENTATION_STYLE_ASSIGNMENT((#233));
#122=ADVANCED_FACE('',(#234,#235),#236,.T.);
#123=PRESENTATION_STYLE_ASSIGNMENT((#237));
#124=EDGE_CURVE('',#110,#134,#238,.T.);
#125=PRESENTATION_STYLE_ASSIGNMENT((#239));
#126=VERTEX_POINT('',#240);
#127=PRESENTATION_STYLE_ASSIGNMENT((#241));
#128=EDGE_CURVE('',#74,#102,#242,.T.);
#129=PRESENTATION_STYLE_ASSIGNMENT((#243));
#130=EDGE_CURVE('',#134,#138,#244,.T.);
#131=PRESENTATION_STYLE_ASSIGNMENT((#245));
#132=EDGE_CURVE('',#150,#138,#246,.T.);
#133=PRESENTATION_STYLE_ASSIGNMENT((#247));
#134=VERTEX_POINT('',#248);
#135=PRESENTATION_STYLE_ASSIGNMENT((#249));
#136=VERTEX_POINT('',#250);
#137=PRESENTATION_STYLE_ASSIGNMENT((#251));
#138=VERTEX_POINT('',#252);
#139=PRESENTATION_STYLE_ASSIGNMENT((#253));
#140=EDGE_CURVE('',#150,#110,#254,.T.);
#141=PRESENTATION_STYLE_ASSIGNMENT((#255));
#142=ADVANCED_FACE('',(#256),#257,.T.);
#143=PRESENTATION_STYLE_ASSIGNMENT((#258));
#144=VERTEX_POINT('',#259);
#145=PRESENTATION_STYLE_ASSIGNMENT((#260));
#146=VERTEX_POINT('',#261);
#147=PRESENTATION_STYLE_ASSIGNMENT((#262));
#148=ADVANCED_FACE('',(#263),#264,.T.);
#149=PRESENTATION_STYLE_ASSIGNMENT((#265));
#150=VERTEX_POINT('',#266);
#151=PRESENTATION_STYLE_ASSIGNMENT((#267));
#152=EDGE_CURVE('',#114,#154,#268,.T.);
#153=PRESENTATION_STYLE_ASSIGNMENT((#269));
#154=VERTEX_POINT('',#270);
#155=PRODUCT('1','1','PART-1-DESC',(#271));
#156=PRODUCT_DEFINITION('NONE','NONE',#272,#2);
#157=AXIS2_PLACEMENT_3D('',#273,#274,#275);
#160=LENGTH_MEASURE_WITH_UNIT(LENGTH_MEASURE(1.0),#276);
#163=DIMENSIONAL_EXPONENTS(1.0,0.0,0.0,0.0,0.0,0.0,0.0);
#165=DIMENSIONAL_EXPONENTS(0.0,0.0,0.0,0.0,0.0,0.0,0.0);
#171=CURVE_STYLE('',#277,POSITIVE_LENGTH_MEASURE(1.0E-006),#278);
#172=CIRCLE('',#279,5.856406460551);
#173=SURFACE_STYLE_USAGE(.BOTH.,#280);
#174=FACE_OUTER_BOUND('',#281,.T.);
#175=CYLINDRICAL_SURFACE('',#282,8.0);
#176=CURVE_STYLE('',#283,POSITIVE_LENGTH_MEASURE(1.0E-006),#284);
#177=LINE('',#285,#286);
#178=POINT_STYLE(' ',#287,POSITIVE_LENGTH_MEASURE(1.0E-006),#288);
#179=CARTESIAN_POINT('',(6.40114232732356E-015,-7.99999999999997,-5.6843418860808E-014));
#180=CURVE_STYLE('',#289,POSITIVE_LENGTH_MEASURE(1.0E-006),#290);
#181=CIRCLE('',#291,8.0);
#182=CURVE_STYLE('',#292,POSITIVE_LENGTH_MEASURE(1.0E-006),#293);
#183=LINE('',#294,#295);
#184=SURFACE_STYLE_USAGE(.BOTH.,#296);
#185=FACE_OUTER_BOUND('',#297,.T.);
#186=CONICAL_SURFACE('',#298,3.7320508075689,0.261799387799132);
#187=CURVE_STYLE('',#299,POSITIVE_LENGTH_MEASURE(1.0E-006),#300);
#188=CIRCLE('',#301,8.0);
#189=SURFACE_STYLE_USAGE(.BOTH.,#302);
#190=FACE_OUTER_BOUND('',#303,.T.);
#191=CYLINDRICAL_SURFACE('',#304,8.0);
#192=SURFACE_STYLE_USAGE(.BOTH.,#305);
#193=FACE_OUTER_BOUND('',#306,.T.);
#194=CONICAL_SURFACE('',#307,6.9282032302755,0.261799387799151);
#195=SURFACE_STYLE_USAGE(.BOTH.,#308);
#196=FACE_OUTER_BOUND('',#309,.T.);
#197=CONICAL_SURFACE('',#310,3.7320508075689,0.261799387799132);
#198=CURVE_STYLE('',#311,POSITIVE_LENGTH_MEASURE(1.0E-006),#312);
#199=CIRCLE('',#313,8.0);
#200=CURVE_STYLE('',#314,POSITIVE_LENGTH_MEASURE(1.0E-006),#315);
#201=CIRCLE('',#316,4.0);
#202=CURVE_STYLE('',#317,POSITIVE_LENGTH_MEASURE(1.0E-006),#318);
#203=LINE('',#319,#320);
#204=CURVE_STYLE('',#321,POSITIVE_LENGTH_MEASURE(1.0E-006),#322);
#205=LINE('',#323,#324);
#206=SURFACE_STYLE_USAGE(.BOTH.,#325);
#207=FACE_OUTER_BOUND('',#326,.T.);
#208=CONICAL_SURFACE('',#327,6.9282032302755,0.261799387799151);
#209=CURVE_STYLE('',#328,POSITIVE_LENGTH_MEASURE(1.0E-006),#329);
#210=CIRCLE('',#330,4.0);
#211=POINT_STYLE(' ',#331,POSITIVE_LENGTH_MEASURE(1.0E-006),#332);
#212=CARTESIAN_POINT('',(-1.69045897562144E-012,8.00000000000003,-5.6843418860808E-014));
#213=CURVE_STYLE('',#333,POSITIVE_LENGTH_MEASURE(1.0E-006),#334);
#214=LINE('',#335,#336);
#215=CURVE_STYLE('',#337,POSITIVE_LENGTH_MEASURE(1.0E-006),#338);
#216=CIRCLE('',#339,5.856406460551);
#217=SURFACE_STYLE_USAGE(.BOTH.,#340);
#218=FACE_OUTER_BOUND('',#341,.T.);
#219=CYLINDRICAL_SURFACE('',#342,4.0);
#220=POINT_STYLE(' ',#343,POSITIVE_LENGTH_MEASURE(1.0E-006),#344);
#221=CARTESIAN_POINT('',(6.5236029627058E-015,-3.99999999999997,-10.0000000000001));
#222=CURVE_STYLE('',#345,POSITIVE_LENGTH_MEASURE(1.0E-006),#346);
#223=CIRCLE('',#347,3.46410161513779);
#224=POINT_STYLE(' ',#348,POSITIVE_LENGTH_MEASURE(1.0E-006),#349);
#225=CARTESIAN_POINT('',(7.13590613961699E-015,-3.99999999999997,-5.6843418860808E-014));
#226=SURFACE_STYLE_USAGE(.BOTH.,#350);
#227=FACE_OUTER_BOUND('',#351,.T.);
#228=PLANE('',#352);
#229=CURVE_STYLE('',#353,POSITIVE_LENGTH_MEASURE(1.0E-006),#354);
#230=LINE('',#355,#356);
#231=SURFACE_STYLE_USAGE(.BOTH.,#357);
#232=CLOSED_SHELL('',(#86,#84,#148,#80,#142,#88,#108,#122,#70,#98,#116));
#233=SURFACE_STYLE_USAGE(.BOTH.,#358);
#234=FACE_OUTER_BOUND('',#359,.T.);
#235=FACE_BOUND('',#360,.T.);
#236=PLANE('',#361);
#237=CURVE_STYLE('',#362,POSITIVE_LENGTH_MEASURE(1.0E-006),#363);
#238=CIRCLE('',#364,4.0);
#239=POINT_STYLE(' ',#365,POSITIVE_LENGTH_MEASURE(1.0E-006),#366);
#240=CARTESIAN_POINT('',(7.59089519757138E-015,-5.85640646055097,13.0));
#241=CURVE_STYLE('',#367,POSITIVE_LENGTH_MEASURE(1.0E-006),#368);
#242=CIRCLE('',#369,8.0);
#243=CURVE_STYLE('',#370,POSITIVE_LENGTH_MEASURE(1.0E-006),#371);
#244=LINE('',#372,#373);
#245=CURVE_STYLE('',#374,POSITIVE_LENGTH_MEASURE(1.0E-006),#375);
#246=CIRCLE('',#376,3.46410161513779);
#247=POINT_STYLE(' ',#377,POSITIVE_LENGTH_MEASURE(1.0E-006),#378);
#248=CARTESIAN_POINT('',(-8.41661534740914E-013,4.00000000000003,-10.0000000000001));
#249=POINT_STYLE(' ',#379,POSITIVE_LENGTH_MEASURE(1.0E-006),#380);
#250=CARTESIAN_POINT('',(6.70729391577916E-015,-7.99999999999997,4.99999999999994));
#251=POINT_STYLE(' ',#381,POSITIVE_LENGTH_MEASURE(1.0E-006),#382);
#252=CARTESIAN_POINT('',(-7.27944240330151E-013,3.46410161513782,-12.0000000000001));
#253=CURVE_STYLE('',#383,POSITIVE_LENGTH_MEASURE(1.0E-006),#384);
#254=LINE('',#385,#386);
#255=SURFACE_STYLE_USAGE(.BOTH.,#387);
#256=FACE_OUTER_BOUND('',#388,.T.);
#257=PLANE('',#389);
#258=POINT_STYLE(' ',#390,POSITIVE_LENGTH_MEASURE(1.0E-006),#391);
#259=CARTESIAN_POINT('',(-1.69045897562144E-012,8.00000000000003,4.99999999999994));
#260=POINT_STYLE(' ',#392,POSITIVE_LENGTH_MEASURE(1.0E-006),#393);
#261=CARTESIAN_POINT('',(-1.23558979797836E-012,5.85640646055103,13.0));
#262=SURFACE_STYLE_USAGE(.BOTH.,#394);
#263=FACE_OUTER_BOUND('',#395,.T.);
#264=CYLINDRICAL_SURFACE('',#396,4.0);
#265=POINT_STYLE(' ',#397,POSITIVE_LENGTH_MEASURE(1.0E-006),#398);
#266=CARTESIAN_POINT('',(6.49958201238937E-015,-3.46410161513776,-12.0000000000001));
#267=CURVE_STYLE('',#399,POSITIVE_LENGTH_MEASURE(1.0E-006),#400);
#268=CIRCLE('',#401,4.0);
#269=POINT_STYLE(' ',#402,POSITIVE_LENGTH_MEASURE(1.0E-006),#403);
#270=CARTESIAN_POINT('',(-8.41661534740914E-013,4.00000000000003,-5.6843418860808E-014));
#271=PRODUCT_CONTEXT('',#54,'mechanical');
#272=PRODUCT_DEFINITION_FORMATION_WITH_SPECIFIED_SOURCE(' ','NONE',#155,.NOT_KNOWN.);
#273=CARTESIAN_POINT('',(0.0,0.0,0.0));
#274=DIRECTION('',(0.0,0.0,1.0));
#275=DIRECTION('',(1.0,0.0,0.0));
#276= (NAMED_UNIT(#163)LENGTH_UNIT()SI_UNIT(.MILLI.,.METRE.));
#277=DRAUGHTING_PRE_DEFINED_CURVE_FONT('continuous');
#278=COLOUR_RGB('',0.509803950786591,0.509803950786591,0.588235318660736);
#279=AXIS2_PLACEMENT_3D('',#405,#406,#407);
#280=SURFACE_SIDE_STYLE('',(#408));
#281=EDGE_LOOP('',(#409,#410,#411,#412));
#282=AXIS2_PLACEMENT_3D('',#413,#414,#415);
#283=DRAUGHTING_PRE_DEFINED_CURVE_FONT('continuous');
#284=COLOUR_RGB('',0.509803950786591,0.509803950786591,0.588235318660736);
#285=CARTESIAN_POINT('',(-8.41661534740914E-013,4.00000000000003,-5.00000000000006));
#286=VECTOR('',#416,1.0);
#287=PRE_DEFINED_MARKER('');
#288=COLOUR_RGB('',0.509803950786591,0.509803950786591,0.588235318660736);
#289=DRAUGHTING_PRE_DEFINED_CURVE_FONT('continuous');
#290=COLOUR_RGB('',0.509803950786591,0.509803950786591,0.588235318660736);
#291=AXIS2_PLACEMENT_3D('',#417,#418,#419);
#292=DRAUGHTING_PRE_DEFINED_CURVE_FONT('continuous');
#293=COLOUR_RGB('',0.509803950786591,0.509803950786591,0.588235318660736);
#294=CARTESIAN_POINT('',(-1.4630243867999E-012,6.92820323027553,8.99999999999996));
#295=VECTOR('',#420,1.0);
#296=SURFACE_SIDE_STYLE('',(#421));
#297=EDGE_LOOP('',(#422,#423,#424,#425));
#298=AXIS2_PLACEMENT_3D('',#426,#427,#428);
#299=DRAUGHTING_PRE_DEFINED_CURVE_FONT('continuous');
#300=COLOUR_RGB('',0.509803950786591,0.509803950786591,0.588235318660736);
#301=AXIS2_PLACEMENT_3D('',#429,#430,#431);
#302=SURFACE_SIDE_STYLE('',(#432));
#303=EDGE_LOOP('',(#433,#434,#435,#436));
#304=AXIS2_PLACEMENT_3D('',#437,#438,#439);
#305=SURFACE_SIDE_STYLE('',(#440));
#306=EDGE_LOOP('',(#441,#442,#443,#444));
#307=AXIS2_PLACEMENT_3D('',#445,#446,#447);
#308=SURFACE_SIDE_STYLE('',(#448));
#309=EDGE_LOOP('',(#449,#450,#451,#452));
#310=AXIS2_PLACEMENT_3D('',#453,#454,#455);
#311=DRAUGHTING_PRE_DEFINED_CURVE_FONT('continuous');
#312=COLOUR_RGB('',0.509803950786591,0.509803950786591,0.588235318660736);
#313=AXIS2_PLACEMENT_3D('',#456,#457,#458);
#314=DRAUGHTING_PRE_DEFINED_CURVE_FONT('continuous');
#315=COLOUR_RGB('',0.509803950786591,0.509803950786591,0.588235318660736);
#316=AXIS2_PLACEMENT_3D('',#459,#460,#461);
#317=DRAUGHTING_PRE_DEFINED_CURVE_FONT('continuous');
#318=COLOUR_RGB('',0.509803950786591,0.509803950786591,0.588235318660736);
#319=CARTESIAN_POINT('',(-1.69045897562144E-012,8.00000000000003,2.49999999999994));
#320=VECTOR('',#462,1.0);
#321=DRAUGHTING_PRE_DEFINED_CURVE_FONT('continuous');
#322=COLOUR_RGB('',0.509803950786591,0.509803950786591,0.588235318660736);
#323=CARTESIAN_POINT('',(1.70473078790068E-012,-7.99999999999997,2.49999999999994));
#324=VECTOR('',#463,1.0);
#325=SURFACE_SIDE_STYLE('',(#464));
#326=EDGE_LOOP('',(#465,#466,#467,#468));
#327=AXIS2_PLACEMENT_3D('',#469,#470,#471);
#328=DRAUGHTING_PRE_DEFINED_CURVE_FONT('continuous');
#329=COLOUR_RGB('',0.509803950786591,0.509803950786591,0.588235318660736);
#330=AXIS2_PLACEMENT_3D('',#472,#473,#474);
#331=PRE_DEFINED_MARKER('');
#332=COLOUR_RGB('',0.509803950786591,0.509803950786591,0.588235318660736);
#333=DRAUGHTING_PRE_DEFINED_CURVE_FONT('continuous');
#334=COLOUR_RGB('',0.509803950786591,0.509803950786591,0.588235318660736);
#335=CARTESIAN_POINT('',(1.47729619907914E-012,-6.92820323027547,8.99999999999996));
#336=VECTOR('',#475,1.0);
#337=DRAUGHTING_PRE_DEFINED_CURVE_FONT('continuous');
#338=COLOUR_RGB('',0.509803950786591,0.509803950786591,0.588235318660736);
#339=AXIS2_PLACEMENT_3D('',#476,#477,#478);
#340=SURFACE_SIDE_STYLE('',(#479));
#341=EDGE_LOOP('',(#480,#481,#482,#483));
#342=AXIS2_PLACEMENT_3D('',#484,#485,#486);
#343=PRE_DEFINED_MARKER('');
#344=COLOUR_RGB('',0.509803950786591,0.509803950786591,0.588235318660736);
#345=DRAUGHTING_PRE_DEFINED_CURVE_FONT('continuous');
#346=COLOUR_RGB('',0.509803950786591,0.509803950786591,0.588235318660736);
#347=AXIS2_PLACEMENT_3D('',#487,#488,#489);
#348=PRE_DEFINED_MARKER('');
#349=COLOUR_RGB('',0.509803950786591,0.509803950786591,0.588235318660736);
#350=SURFACE_SIDE_STYLE('',(#490));
#351=EDGE_LOOP('',(#491,#492));
#352=AXIS2_PLACEMENT_3D('',#493,#494,#495);
#353=DRAUGHTING_PRE_DEFINED_CURVE_FONT('continuous');
#354=COLOUR_RGB('',0.509803950786591,0.509803950786591,0.588235318660736);
#355=CARTESIAN_POINT('',(8.55933347020148E-013,-3.99999999999997,-5.00000000000006));
#356=VECTOR('',#496,1.0);
#357=SURFACE_SIDE_STYLE('',(#497));
#358=SURFACE_SIDE_STYLE('',(#498));
#359=EDGE_LOOP('',(#499,#500));
#360=EDGE_LOOP('',(#501,#502));
#361=AXIS2_PLACEMENT_3D('',#503,#504,#505);
#362=DRAUGHTING_PRE_DEFINED_CURVE_FONT('continuous');
#363=COLOUR_RGB('',0.509803950786591,0.509803950786591,0.588235318660736);
#364=AXIS2_PLACEMENT_3D('',#506,#507,#508);
#365=PRE_DEFINED_MARKER('');
#366=COLOUR_RGB('',0.509803950786591,0.509803950786591,0.588235318660736);
#367=DRAUGHTING_PRE_DEFINED_CURVE_FONT('continuous');
#368=COLOUR_RGB('',0.509803950786591,0.509803950786591,0.588235318660736);
#369=AXIS2_PLACEMENT_3D('',#509,#510,#511);
#370=DRAUGHTING_PRE_DEFINED_CURVE_FONT('continuous');
#371=COLOUR_RGB('',0.509803950786591,0.509803950786591,0.588235318660736);
#372=CARTESIAN_POINT('',(-7.84802887535533E-013,3.73205080756892,-11.0000000000001));
#373=VECTOR('',#512,1.0);
#374=DRAUGHTING_PRE_DEFINED_CURVE_FONT('continuous');
#375=COLOUR_RGB('',0.509803950786591,0.509803950786591,0.588235318660736);
#376=AXIS2_PLACEMENT_3D('',#513,#514,#515);
#377=PRE_DEFINED_MARKER('');
#378=COLOUR_RGB('',0.509803950786591,0.509803950786591,0.588235318660736);
#379=PRE_DEFINED_MARKER('');
#380=COLOUR_RGB('',0.509803950786591,0.509803950786591,0.588235318660736);
#381=PRE_DEFINED_MARKER('');
#382=COLOUR_RGB('',0.509803950786591,0.509803950786591,0.588235318660736);
#383=DRAUGHTING_PRE_DEFINED_CURVE_FONT('continuous');
#384=COLOUR_RGB('',0.509803950786591,0.509803950786591,0.588235318660736);
#385=CARTESIAN_POINT('',(7.99074699814767E-013,-3.73205080756887,-11.0000000000001));
#386=VECTOR('',#516,1.0);
#387=SURFACE_SIDE_STYLE('',(#517));
#388=EDGE_LOOP('',(#518,#519));
#389=AXIS2_PLACEMENT_3D('',#520,#521,#522);
#390=PRE_DEFINED_MARKER('');
#391=COLOUR_RGB('',0.509803950786591,0.509803950786591,0.588235318660736);
#392=PRE_DEFINED_MARKER('');
#393=COLOUR_RGB('',0.509803950786591,0.509803950786591,0.588235318660736);
#394=SURFACE_SIDE_STYLE('',(#523));
#395=EDGE_LOOP('',(#524,#525,#526,#527));
#396=AXIS2_PLACEMENT_3D('',#528,#529,#530);
#397=PRE_DEFINED_MARKER('');
#398=COLOUR_RGB('',0.509803950786591,0.509803950786591,0.588235318660736);
#399=DRAUGHTING_PRE_DEFINED_CURVE_FONT('continuous');
#400=COLOUR_RGB('',0.509803950786591,0.509803950786591,0.588235318660736);
#401=AXIS2_PLACEMENT_3D('',#531,#532,#533);
#402=PRE_DEFINED_MARKER('');
#403=COLOUR_RGB('',0.509803950786591,0.509803950786591,0.588235318660736);
#405=CARTESIAN_POINT('',(7.13590613961699E-015,2.8421709430404E-014,13.0));
#406=DIRECTION('',(0.0,0.0,1.0));
#407=DIRECTION('',(2.12321820855515E-013,-1.0,0.0));
#408=SURFACE_STYLE_FILL_AREA(#534);
#409=ORIENTED_EDGE('',*,*,#96,.T.);
#410=ORIENTED_EDGE('',*,*,#76,.F.);
#411=ORIENTED_EDGE('',*,*,#94,.T.);
#412=ORIENTED_EDGE('',*,*,#82,.T.);
#413=CARTESIAN_POINT('',(7.13590613961699E-015,2.8421709430404E-014,2.49999999999994));
#414=DIRECTION('',(-0.0,-0.0,-1.0));
#415=DIRECTION('',(2.12321820855515E-013,-1.0,0.0));
#416=DIRECTION('',(-0.0,-0.0,-1.0));
#417=CARTESIAN_POINT('',(7.13590613961699E-015,2.8421709430404E-014,4.99999999999994));
#418=DIRECTION('',(0.0,0.0,1.0));
#419=DIRECTION('',(2.12321820855515E-013,-1.0,0.0));
#420=DIRECTION('',(-5.49212357835409E-014,0.258819045102522,-0.965925826289068));
#421=SURFACE_STYLE_FILL_AREA(#535);
#422=ORIENTED_EDGE('',*,*,#140,.F.);
#423=ORIENTED_EDGE('',*,*,#132,.T.);
#424=ORIENTED_EDGE('',*,*,#130,.F.);
#425=ORIENTED_EDGE('',*,*,#124,.F.);
#426=CARTESIAN_POINT('',(7.13590613961699E-015,2.8421709430404E-014,-11.0000000000001));
#427=DIRECTION('',(-0.0,0.0,1.0));
#428=DIRECTION('',(2.12321820855515E-013,-1.0,0.0));
#429=CARTESIAN_POINT('',(7.13590613961699E-015,2.8421709430404E-014,-5.6843418860808E-014));
#430=DIRECTION('',(0.0,0.0,1.0));
#431=DIRECTION('',(2.12321820855515E-013,-1.0,0.0));
#432=SURFACE_STYLE_FILL_AREA(#536);
#433=ORIENTED_EDGE('',*,*,#96,.F.);
#434=ORIENTED_EDGE('',*,*,#128,.T.);
#435=ORIENTED_EDGE('',*,*,#94,.F.);
#436=ORIENTED_EDGE('',*,*,#90,.F.);
#437=CARTESIAN_POINT('',(7.13590613961699E-015,2.8421709430404E-014,2.49999999999994));
#438=DIRECTION('',(-0.0,-0.0,-1.0));
#439=DIRECTION('',(2.12321820855515E-013,-1.0,0.0));
#440=SURFACE_STYLE_FILL_AREA(#537);
#441=ORIENTED_EDGE('',*,*,#104,.F.);
#442=ORIENTED_EDGE('',*,*,#90,.T.);
#443=ORIENTED_EDGE('',*,*,#78,.F.);
#444=ORIENTED_EDGE('',*,*,#106,.F.);
#445=CARTESIAN_POINT('',(7.13590613961699E-015,2.8421709430404E-014,8.99999999999996));
#446=DIRECTION('',(-0.0,-0.0,-1.0));
#447=DIRECTION('',(2.12321820855515E-013,-1.0,0.0));
#448=SURFACE_STYLE_FILL_AREA(#538);
#449=ORIENTED_EDGE('',*,*,#140,.T.);
#450=ORIENTED_EDGE('',*,*,#100,.F.);
#451=ORIENTED_EDGE('',*,*,#130,.T.);
#452=ORIENTED_EDGE('',*,*,#112,.T.);
#453=CARTESIAN_POINT('',(7.13590613961699E-015,2.8421709430404E-014,-11.0000000000001));
#454=DIRECTION('',(-0.0,0.0,1.0));
#455=DIRECTION('',(2.12321820855515E-013,-1.0,0.0));
#456=CARTESIAN_POINT('',(7.13590613961699E-015,2.8421709430404E-014,4.99999999999994));
#457=DIRECTION('',(0.0,0.0,1.0));
#458=DIRECTION('',(2.12321820855515E-013,-1.0,0.0));
#459=CARTESIAN_POINT('',(7.13590613961699E-015,2.8421709430404E-014,-5.6843418860808E-014));
#460=DIRECTION('',(0.0,0.0,1.0));
#461=DIRECTION('',(2.12321820855515E-013,-1.0,0.0));
#462=DIRECTION('',(-0.0,-0.0,-1.0));
#463=DIRECTION('',(0.0,0.0,1.0));
#464=SURFACE_STYLE_FILL_AREA(#539);
#465=ORIENTED_EDGE('',*,*,#104,.T.);
#466=ORIENTED_EDGE('',*,*,#68,.F.);
#467=ORIENTED_EDGE('',*,*,#78,.T.);
#468=ORIENTED_EDGE('',*,*,#76,.T.);
#469=CARTESIAN_POINT('',(7.13590613961699E-015,2.8421709430404E-014,8.99999999999996));
#470=DIRECTION('',(-0.0,-0.0,-1.0));
#471=DIRECTION('',(2.12321820855515E-013,-1.0,0.0));
#472=CARTESIAN_POINT('',(7.13590613961699E-015,2.8421709430404E-014,-10.0000000000001));
#473=DIRECTION('',(0.0,0.0,1.0));
#474=DIRECTION('',(2.12321820855515E-013,-1.0,0.0));
#475=DIRECTION('',(-5.49212357835409E-014,0.258819045102522,0.965925826289068));
#476=CARTESIAN_POINT('',(7.13590613961699E-015,2.8421709430404E-014,13.0));
#477=DIRECTION('',(0.0,0.0,1.0));
#478=DIRECTION('',(2.12321820855515E-013,-1.0,0.0));
#479=SURFACE_STYLE_FILL_AREA(#540);
#480=ORIENTED_EDGE('',*,*,#118,.T.);
#481=ORIENTED_EDGE('',*,*,#92,.F.);
#482=ORIENTED_EDGE('',*,*,#72,.T.);
#483=ORIENTED_EDGE('',*,*,#100,.T.);
#484=CARTESIAN_POINT('',(7.13590613961699E-015,2.8421709430404E-014,-5.00000000000006));
#485=DIRECTION('',(-0.0,-0.0,-1.0));
#486=DIRECTION('',(2.12321820855515E-013,-1.0,0.0));
#487=CARTESIAN_POINT('',(7.13590613961699E-015,2.8421709430404E-014,-12.0000000000001));
#488=DIRECTION('',(0.0,0.0,1.0));
#489=DIRECTION('',(2.12321820855515E-013,-1.0,0.0));
#490=SURFACE_STYLE_FILL_AREA(#541);
#491=ORIENTED_EDGE('',*,*,#106,.T.);
#492=ORIENTED_EDGE('',*,*,#68,.T.);
#493=CARTESIAN_POINT('',(8.12877963973317E-015,-2.92820323027547,13.0));
#494=DIRECTION('',(0.0,0.0,1.0));
#495=DIRECTION('',(-1.83690953073357E-016,-1.0,0.0));
#496=DIRECTION('',(0.0,0.0,1.0));
#497=SURFACE_STYLE_FILL_AREA(#542);
#498=SURFACE_STYLE_FILL_AREA(#543);
#499=ORIENTED_EDGE('',*,*,#128,.F.);
#500=ORIENTED_EDGE('',*,*,#82,.F.);
#501=ORIENTED_EDGE('',*,*,#152,.T.);
#502=ORIENTED_EDGE('',*,*,#92,.T.);
#503=CARTESIAN_POINT('',(6.76852423347027E-015,-5.99999999999997,-5.6843418860808E-014));
#504=DIRECTION('',(0.0,0.0,-1.0));
#505=DIRECTION('',(1.83690953073357E-016,1.0,0.0));
#506=CARTESIAN_POINT('',(7.13590613961699E-015,2.8421709430404E-014,-10.0000000000001));
#507=DIRECTION('',(0.0,0.0,1.0));
#508=DIRECTION('',(2.12321820855515E-013,-1.0,0.0));
#509=CARTESIAN_POINT('',(7.13590613961699E-015,2.8421709430404E-014,-5.6843418860808E-014));
#510=DIRECTION('',(0.0,0.0,1.0));
#511=DIRECTION('',(2.12321820855515E-013,-1.0,0.0));
#512=DIRECTION('',(5.49212357835369E-014,-0.258819045102504,-0.965925826289073));
#513=CARTESIAN_POINT('',(7.13590613961699E-015,2.8421709430404E-014,-12.0000000000001));
#514=DIRECTION('',(0.0,0.0,1.0));
#515=DIRECTION('',(2.12321820855515E-013,-1.0,0.0));
#516=DIRECTION('',(5.4921235783537E-014,-0.258819045102504,0.965925826289073));
#517=SURFACE_STYLE_FILL_AREA(#544);
#518=ORIENTED_EDGE('',*,*,#132,.F.);
#519=ORIENTED_EDGE('',*,*,#112,.F.);
#520=CARTESIAN_POINT('',(6.81774407600318E-015,-1.73205080756887,-12.0));
#521=DIRECTION('',(0.0,0.0,-1.0));
#522=DIRECTION('',(1.83690953073357E-016,1.0,0.0));
#523=SURFACE_STYLE_FILL_AREA(#545);
#524=ORIENTED_EDGE('',*,*,#118,.F.);
#525=ORIENTED_EDGE('',*,*,#124,.T.);
#526=ORIENTED_EDGE('',*,*,#72,.F.);
#527=ORIENTED_EDGE('',*,*,#152,.F.);
#528=CARTESIAN_POINT('',(7.13590613961699E-015,2.8421709430404E-014,-5.00000000000006));
#529=DIRECTION('',(-0.0,-0.0,-1.0));
#530=DIRECTION('',(2.12321820855515E-013,-1.0,0.0));
#531=CARTESIAN_POINT('',(7.13590613961699E-015,2.8421709430404E-014,-5.6843418860808E-014));
#532=DIRECTION('',(0.0,0.0,1.0));
#533=DIRECTION('',(2.12321820855515E-013,-1.0,0.0));
#534=FILL_AREA_STYLE('',(#546));
#535=FILL_AREA_STYLE('',(#547));
#536=FILL_AREA_STYLE('',(#548));
#537=FILL_AREA_STYLE('',(#549));
#538=FILL_AREA_STYLE('',(#550));
#539=FILL_AREA_STYLE('',(#551));
#540=FILL_AREA_STYLE('',(#552));
#541=FILL_AREA_STYLE('',(#553));
#542=FILL_AREA_STYLE('',(#554));
#543=FILL_AREA_STYLE('',(#555));
#544=FILL_AREA_STYLE('',(#556));
#545=FILL_AREA_STYLE('',(#557));
#546=FILL_AREA_STYLE_COLOUR('',#558);
#547=FILL_AREA_STYLE_COLOUR('',#559);
#548=FILL_AREA_STYLE_COLOUR('',#560);
#549=FILL_AREA_STYLE_COLOUR('',#561);
#550=FILL_AREA_STYLE_COLOUR('',#562);
#551=FILL_AREA_STYLE_COLOUR('',#563);
#552=FILL_AREA_STYLE_COLOUR('',#564);
#553=FILL_AREA_STYLE_COLOUR('',#565);
#554=FILL_AREA_STYLE_COLOUR('',#566);
#555=FILL_AREA_STYLE_COLOUR('',#567);
#556=FILL_AREA_STYLE_COLOUR('',#568);
#557=FILL_AREA_STYLE_COLOUR('',#569);
#558=COLOUR_RGB('',0.509803950786591,0.509803950786591,0.588235318660736);
#559=COLOUR_RGB('',0.509803950786591,0.509803950786591,0.588235318660736);
#560=COLOUR_RGB('',0.509803950786591,0.509803950786591,0.588235318660736);
#561=COLOUR_RGB('',0.509803950786591,0.509803950786591,0.588235318660736);
#562=COLOUR_RGB('',0.509803950786591,0.509803950786591,0.588235318660736);
#563=COLOUR_RGB('',0.509803950786591,0.509803950786591,0.588235318660736);
#564=COLOUR_RGB('',0.509803950786591,0.509803950786591,0.588235318660736);
#565=COLOUR_RGB('',0.509803950786591,0.509803950786591,0.588235318660736);
#566=COLOUR_RGB('',0.509803950786591,0.509803950786591,0.588235318660736);
#567=COLOUR_RGB('',0.509803950786591,0.509803950786591,0.588235318660736);
#568=COLOUR_RGB('',0.509803950786591,0.509803950786591,0.588235318660736);
#569=COLOUR_RGB('',0.509803950786591,0.509803950786591,0.588235318660736);
ENDSEC;
END-ISO-10303-21;
