ISO-10303-21;
HEADER;
FILE_DESCRIPTION(('STEP AP214'),'1');
FILE_NAME(' ','  ',('TraceParts'),('TraceParts S.A.'),'XStep 1.0',' ',' ');
FILE_SCHEMA(('automotive_design'));
ENDSEC;
DATA;
#1=MECHANICAL_DESIGN_GEOMETRIC_PRESENTATION_REPRESENTATION(' ',(#10,#11,#12,#13,#14,#15,#16,#17,#18,#19,#20,#21,#22,#23,#24,#25,#26,#27,#28,#29,#30,#31,#32,#33,#34,#35,#36,#37,#38,#39,#40,#41,#42,#43,#44,#45,#46,#47,#48,#49,#50,#51,#52,#53),#6);
#2=PRODUCT_DEFINITION_CONTEXT('',#54,'design');
#3=APPLICATION_PROTOCOL_DEFINITION('INTERNATIONAL STANDARD','automotive_design',1994,#54);
#4=PRODUCT_CATEGORY_RELATIONSHIP('NONE','NONE',#55,#56);
#5=SHAPE_DEFINITION_REPRESENTATION(#57,#58);
#6= (GEOMETRIC_REPRESENTATION_CONTEXT(3)GLOBAL_UNCERTAINTY_ASSIGNED_CONTEXT((#61))GLOBAL_UNIT_ASSIGNED_CONTEXT((#63,#64,#65))REPRESENTATION_CONTEXT('NONE','WORKSPACE'));
#10=STYLED_ITEM('',(#67),#68);
#11=STYLED_ITEM('',(#69),#70);
#12=STYLED_ITEM('',(#71),#72);
#13=STYLED_ITEM('',(#73),#74);
#14=STYLED_ITEM('',(#75),#76);
#15=STYLED_ITEM('',(#77),#78);
#16=STYLED_ITEM('',(#79),#80);
#17=STYLED_ITEM('',(#81),#82);
#18=STYLED_ITEM('',(#83),#84);
#19=STYLED_ITEM('',(#85),#86);
#20=STYLED_ITEM('',(#87),#88);
#21=STYLED_ITEM('',(#89),#90);
#22=STYLED_ITEM('',(#91),#92);
#23=STYLED_ITEM('',(#93),#94);
#24=STYLED_ITEM('',(#95),#96);
#25=STYLED_ITEM('',(#97),#98);
#26=STYLED_ITEM('',(#99),#100);
#27=STYLED_ITEM('',(#101),#102);
#28=STYLED_ITEM('',(#103),#104);
#29=STYLED_ITEM('',(#105),#106);
#30=STYLED_ITEM('',(#107),#108);
#31=STYLED_ITEM('',(#109),#110);
#32=STYLED_ITEM('',(#111),#112);
#33=STYLED_ITEM('',(#113),#114);
#34=STYLED_ITEM('',(#115),#116);
#35=STYLED_ITEM('',(#117),#118);
#36=STYLED_ITEM('',(#119),#120);
#37=STYLED_ITEM('',(#121),#122);
#38=STYLED_ITEM('',(#123),#124);
#39=STYLED_ITEM('',(#125),#126);
#40=STYLED_ITEM('',(#127),#128);
#41=STYLED_ITEM('',(#129),#130);
#42=STYLED_ITEM('',(#131),#132);
#43=STYLED_ITEM('',(#133),#134);
#44=STYLED_ITEM('',(#135),#136);
#45=STYLED_ITEM('',(#137),#138);
#46=STYLED_ITEM('',(#139),#140);
#47=STYLED_ITEM('',(#141),#142);
#48=STYLED_ITEM('',(#143),#144);
#49=STYLED_ITEM('',(#145),#146);
#50=STYLED_ITEM('',(#147),#148);
#51=STYLED_ITEM('',(#149),#150);
#52=STYLED_ITEM('',(#151),#152);
#53=STYLED_ITEM('',(#153),#154);
#54=APPLICATION_CONTEXT(' ');
#55=PRODUCT_CATEGORY('part','NONE');
#56=PRODUCT_RELATED_PRODUCT_CATEGORY('detail',' ',(#155));
#57=PRODUCT_DEFINITION_SHAPE('NONE','NONE',#156);
#58=ADVANCED_BREP_SHAPE_REPRESENTATION('1',(#108,#157),#6);
#61=UNCERTAINTY_MEASURE_WITH_UNIT(LENGTH_MEASURE(1.0E-006),#63,'','');
#63= (CONVERSION_BASED_UNIT('MILLIMETRE',#160)LENGTH_UNIT()NAMED_UNIT(#163));
#64= (NAMED_UNIT(#165)PLANE_ANGLE_UNIT()SI_UNIT($,.RADIAN.));
#65= (NAMED_UNIT(#165)SOLID_ANGLE_UNIT()SI_UNIT($,.STERADIAN.));
#67=PRESENTATION_STYLE_ASSIGNMENT((#171));
#68=EDGE_CURVE('',#112,#106,#172,.T.);
#69=PRESENTATION_STYLE_ASSIGNMENT((#173));
#70=ADVANCED_FACE('',(#174),#175,.T.);
#71=PRESENTATION_STYLE_ASSIGNMENT((#176));
#72=ADVANCED_FACE('',(#177),#178,.T.);
#73=PRESENTATION_STYLE_ASSIGNMENT((#179));
#74=VERTEX_POINT('',#180);
#75=PRESENTATION_STYLE_ASSIGNMENT((#181));
#76=EDGE_CURVE('',#112,#126,#182,.T.);
#77=PRESENTATION_STYLE_ASSIGNMENT((#183));
#78=EDGE_CURVE('',#98,#112,#184,.T.);
#79=PRESENTATION_STYLE_ASSIGNMENT((#185));
#80=EDGE_CURVE('',#74,#98,#186,.T.);
#81=PRESENTATION_STYLE_ASSIGNMENT((#187));
#82=EDGE_CURVE('',#128,#146,#188,.T.);
#83=PRESENTATION_STYLE_ASSIGNMENT((#189));
#84=EDGE_CURVE('',#126,#138,#190,.T.);
#85=PRESENTATION_STYLE_ASSIGNMENT((#191));
#86=ADVANCED_FACE('',(#192,#193),#194,.T.);
#87=PRESENTATION_STYLE_ASSIGNMENT((#195));
#88=EDGE_CURVE('',#100,#146,#196,.T.);
#89=PRESENTATION_STYLE_ASSIGNMENT((#197));
#90=EDGE_CURVE('',#138,#126,#198,.T.);
#91=PRESENTATION_STYLE_ASSIGNMENT((#199));
#92=EDGE_CURVE('',#124,#128,#200,.T.);
#93=PRESENTATION_STYLE_ASSIGNMENT((#201));
#94=EDGE_CURVE('',#106,#74,#202,.T.);
#95=PRESENTATION_STYLE_ASSIGNMENT((#203));
#96=EDGE_CURVE('',#98,#74,#204,.T.);
#97=PRESENTATION_STYLE_ASSIGNMENT((#205));
#98=VERTEX_POINT('',#206);
#99=PRESENTATION_STYLE_ASSIGNMENT((#207));
#100=VERTEX_POINT('',#208);
#101=PRESENTATION_STYLE_ASSIGNMENT((#209));
#102=EDGE_CURVE('',#130,#148,#210,.T.);
#103=PRESENTATION_STYLE_ASSIGNMENT((#211));
#104=EDGE_CURVE('',#138,#106,#212,.T.);
#105=PRESENTATION_STYLE_ASSIGNMENT((#213));
#106=VERTEX_POINT('',#214);
#107=PRESENTATION_STYLE_ASSIGNMENT((#215));
#108=MANIFOLD_SOLID_BREP('1',#216);
#109=PRESENTATION_STYLE_ASSIGNMENT((#217));
#110=EDGE_CURVE('',#148,#130,#218,.T.);
#111=PRESENTATION_STYLE_ASSIGNMENT((#219));
#112=VERTEX_POINT('',#220);
#113=PRESENTATION_STYLE_ASSIGNMENT((#221));
#114=ADVANCED_FACE('',(#222),#223,.T.);
#115=PRESENTATION_STYLE_ASSIGNMENT((#224));
#116=EDGE_CURVE('',#128,#124,#225,.T.);
#117=PRESENTATION_STYLE_ASSIGNMENT((#226));
#118=EDGE_CURVE('',#100,#124,#227,.T.);
#119=PRESENTATION_STYLE_ASSIGNMENT((#228));
#120=ADVANCED_FACE('',(#229),#230,.T.);
#121=PRESENTATION_STYLE_ASSIGNMENT((#231));
#122=EDGE_CURVE('',#124,#130,#232,.T.);
#123=PRESENTATION_STYLE_ASSIGNMENT((#233));
#124=VERTEX_POINT('',#234);
#125=PRESENTATION_STYLE_ASSIGNMENT((#235));
#126=VERTEX_POINT('',#236);
#127=PRESENTATION_STYLE_ASSIGNMENT((#237));
#128=VERTEX_POINT('',#238);
#129=PRESENTATION_STYLE_ASSIGNMENT((#239));
#130=VERTEX_POINT('',#240);
#131=PRESENTATION_STYLE_ASSIGNMENT((#241));
#132=EDGE_CURVE('',#106,#112,#242,.T.);
#133=PRESENTATION_STYLE_ASSIGNMENT((#243));
#134=ADVANCED_FACE('',(#244),#245,.T.);
#135=PRESENTATION_STYLE_ASSIGNMENT((#246));
#136=EDGE_CURVE('',#148,#128,#247,.T.);
#137=PRESENTATION_STYLE_ASSIGNMENT((#248));
#138=VERTEX_POINT('',#249);
#139=PRESENTATION_STYLE_ASSIGNMENT((#250));
#140=ADVANCED_FACE('',(#251),#252,.T.);
#141=PRESENTATION_STYLE_ASSIGNMENT((#253));
#142=ADVANCED_FACE('',(#254),#255,.T.);
#143=PRESENTATION_STYLE_ASSIGNMENT((#256));
#144=ADVANCED_FACE('',(#257),#258,.T.);
#145=PRESENTATION_STYLE_ASSIGNMENT((#259));
#146=VERTEX_POINT('',#260);
#147=PRESENTATION_STYLE_ASSIGNMENT((#261));
#148=VERTEX_POINT('',#262);
#149=PRESENTATION_STYLE_ASSIGNMENT((#263));
#150=EDGE_CURVE('',#146,#100,#264,.T.);
#151=PRESENTATION_STYLE_ASSIGNMENT((#265));
#152=ADVANCED_FACE('',(#266),#267,.T.);
#153=PRESENTATION_STYLE_ASSIGNMENT((#268));
#154=ADVANCED_FACE('',(#269),#270,.T.);
#155=PRODUCT('1','1','PART-1-DESC',(#271));
#156=PRODUCT_DEFINITION('NONE','NONE',#272,#2);
#157=AXIS2_PLACEMENT_3D('',#273,#274,#275);
#160=LENGTH_MEASURE_WITH_UNIT(LENGTH_MEASURE(1.0),#276);
#163=DIMENSIONAL_EXPONENTS(1.0,0.0,0.0,0.0,0.0,0.0,0.0);
#165=DIMENSIONAL_EXPONENTS(0.0,0.0,0.0,0.0,0.0,0.0,0.0);
#171=CURVE_STYLE('',#277,POSITIVE_LENGTH_MEASURE(1.0E-006),#278);
#172=CIRCLE('',#279,12.5);
#173=SURFACE_STYLE_USAGE(.BOTH.,#280);
#174=FACE_OUTER_BOUND('',#281,.T.);
#175=CYLINDRICAL_SURFACE('',#282,6.0);
#176=SURFACE_STYLE_USAGE(.BOTH.,#283);
#177=FACE_OUTER_BOUND('',#284,.T.);
#178=CYLINDRICAL_SURFACE('',#285,12.5);
#179=POINT_STYLE(' ',#286,POSITIVE_LENGTH_MEASURE(1.0E-006),#287);
#180=CARTESIAN_POINT('',(6.67726772788363E-015,-11.8301270189222,9.99999999999997));
#181=CURVE_STYLE('',#288,POSITIVE_LENGTH_MEASURE(1.0E-006),#289);
#182=LINE('',#290,#291);
#183=CURVE_STYLE('',#292,POSITIVE_LENGTH_MEASURE(1.0E-006),#293);
#184=LINE('',#294,#295);
#185=CURVE_STYLE('',#296,POSITIVE_LENGTH_MEASURE(1.0E-006),#297);
#186=CIRCLE('',#298,11.8301270189222);
#187=CURVE_STYLE('',#299,POSITIVE_LENGTH_MEASURE(1.0E-006),#300);
#188=LINE('',#301,#302);
#189=CURVE_STYLE('',#303,POSITIVE_LENGTH_MEASURE(1.0E-006),#304);
#190=CIRCLE('',#305,12.5);
#191=SURFACE_STYLE_USAGE(.BOTH.,#306);
#192=FACE_OUTER_BOUND('',#307,.T.);
#193=FACE_BOUND('',#308,.T.);
#194=PLANE('',#309);
#195=CURVE_STYLE('',#310,POSITIVE_LENGTH_MEASURE(1.0E-006),#311);
#196=CIRCLE('',#312,6.0);
#197=CURVE_STYLE('',#313,POSITIVE_LENGTH_MEASURE(1.0E-006),#314);
#198=CIRCLE('',#315,12.5);
#199=CURVE_STYLE('',#316,POSITIVE_LENGTH_MEASURE(1.0E-006),#317);
#200=CIRCLE('',#318,6.0);
#201=CURVE_STYLE('',#319,POSITIVE_LENGTH_MEASURE(1.0E-006),#320);
#202=LINE('',#321,#322);
#203=CURVE_STYLE('',#323,POSITIVE_LENGTH_MEASURE(1.0E-006),#324);
#204=CIRCLE('',#325,11.8301270189222);
#205=POINT_STYLE(' ',#326,POSITIVE_LENGTH_MEASURE(1.0E-006),#327);
#206=CARTESIAN_POINT('',(-1.38310317221144E-012,11.8301270189222,9.99999999999997));
#207=POINT_STYLE(' ',#328,POSITIVE_LENGTH_MEASURE(1.0E-006),#329);
#208=CARTESIAN_POINT('',(-6.9796510053295E-013,6.00000000000003,-5.6843418860808E-014));
#209=CURVE_STYLE('',#330,POSITIVE_LENGTH_MEASURE(1.0E-006),#331);
#210=CIRCLE('',#332,5.7320508075689);
#211=CURVE_STYLE('',#333,POSITIVE_LENGTH_MEASURE(1.0E-006),#334);
#212=LINE('',#335,#336);
#213=POINT_STYLE(' ',#337,POSITIVE_LENGTH_MEASURE(1.0E-006),#338);
#214=CARTESIAN_POINT('',(6.40114232732356E-015,-12.5,7.49999999999994));
#215=SURFACE_STYLE_USAGE(.BOTH.,#339);
#216=CLOSED_SHELL('',(#154,#72,#134,#142,#152,#140,#70,#86,#144,#114,#120));
#217=CURVE_STYLE('',#340,POSITIVE_LENGTH_MEASURE(1.0E-006),#341);
#218=CIRCLE('',#342,5.7320508075689);
#219=POINT_STYLE(' ',#343,POSITIVE_LENGTH_MEASURE(1.0E-006),#344);
#220=CARTESIAN_POINT('',(-1.46182452442823E-012,12.5,7.49999999999994));
#221=SURFACE_STYLE_USAGE(.BOTH.,#345);
#222=FACE_OUTER_BOUND('',#346,.T.);
#223=CONICAL_SURFACE('',#347,12.1650635094611,0.26179938779915);
#224=CURVE_STYLE('',#348,POSITIVE_LENGTH_MEASURE(1.0E-006),#349);
#225=CIRCLE('',#350,6.0);
#226=CURVE_STYLE('',#351,POSITIVE_LENGTH_MEASURE(1.0E-006),#352);
#227=LINE('',#353,#354);
#228=SURFACE_STYLE_USAGE(.BOTH.,#355);
#229=FACE_OUTER_BOUND('',#356,.T.);
#230=PLANE('',#357);
#231=CURVE_STYLE('',#358,POSITIVE_LENGTH_MEASURE(1.0E-006),#359);
#232=LINE('',#360,#361);
#233=POINT_STYLE(' ',#362,POSITIVE_LENGTH_MEASURE(1.0E-006),#363);
#234=CARTESIAN_POINT('',(-6.9796510053295E-013,6.00000000000003,-17.0000000000001));
#235=POINT_STYLE(' ',#364,POSITIVE_LENGTH_MEASURE(1.0E-006),#365);
#236=CARTESIAN_POINT('',(-1.46182452442823E-012,12.5,-5.6843418860808E-014));
#237=POINT_STYLE(' ',#366,POSITIVE_LENGTH_MEASURE(1.0E-006),#367);
#238=CARTESIAN_POINT('',(6.09499073886797E-015,-5.99999999999997,-17.0000000000001));
#239=POINT_STYLE(' ',#368,POSITIVE_LENGTH_MEASURE(1.0E-006),#369);
#240=CARTESIAN_POINT('',(-6.66476559646238E-013,5.73205080756893,-18.0000000000001));
#241=CURVE_STYLE('',#370,POSITIVE_LENGTH_MEASURE(1.0E-006),#371);
#242=CIRCLE('',#372,12.5);
#243=SURFACE_STYLE_USAGE(.BOTH.,#373);
#244=FACE_OUTER_BOUND('',#374,.T.);
#245=CYLINDRICAL_SURFACE('',#375,6.0);
#246=CURVE_STYLE('',#376,POSITIVE_LENGTH_MEASURE(1.0E-006),#377);
#247=LINE('',#378,#379);
#248=POINT_STYLE(' ',#380,POSITIVE_LENGTH_MEASURE(1.0E-006),#381);
#249=CARTESIAN_POINT('',(5.94191494464017E-015,-12.5,-5.6843418860808E-014));
#250=SURFACE_STYLE_USAGE(.BOTH.,#382);
#251=FACE_OUTER_BOUND('',#383,.T.);
#252=CONICAL_SURFACE('',#384,5.86602540378445,0.261799387799132);
#253=SURFACE_STYLE_USAGE(.BOTH.,#385);
#254=FACE_OUTER_BOUND('',#386,.T.);
#255=CONICAL_SURFACE('',#387,5.86602540378445,0.261799387799132);
#256=SURFACE_STYLE_USAGE(.BOTH.,#388);
#257=FACE_OUTER_BOUND('',#389,.T.);
#258=CYLINDRICAL_SURFACE('',#390,12.5);
#259=POINT_STYLE(' ',#391,POSITIVE_LENGTH_MEASURE(1.0E-006),#392);
#260=CARTESIAN_POINT('',(7.13590613961699E-015,-5.99999999999997,-5.6843418860808E-014));
#261=POINT_STYLE(' ',#393,POSITIVE_LENGTH_MEASURE(1.0E-006),#394);
#262=CARTESIAN_POINT('',(6.08298026370975E-015,-5.73205080756887,-18.0000000000001));
#263=CURVE_STYLE('',#395,POSITIVE_LENGTH_MEASURE(1.0E-006),#396);
#264=CIRCLE('',#397,6.0);
#265=SURFACE_STYLE_USAGE(.BOTH.,#398);
#266=FACE_OUTER_BOUND('',#399,.T.);
#267=PLANE('',#400);
#268=SURFACE_STYLE_USAGE(.BOTH.,#401);
#269=FACE_OUTER_BOUND('',#402,.T.);
#270=CONICAL_SURFACE('',#403,12.1650635094611,0.26179938779915);
#271=PRODUCT_CONTEXT('',#54,'mechanical');
#272=PRODUCT_DEFINITION_FORMATION_WITH_SPECIFIED_SOURCE(' ','NONE',#155,.NOT_KNOWN.);
#273=CARTESIAN_POINT('',(0.0,0.0,0.0));
#274=DIRECTION('',(0.0,0.0,1.0));
#275=DIRECTION('',(1.0,0.0,0.0));
#276= (NAMED_UNIT(#163)LENGTH_UNIT()SI_UNIT(.MILLI.,.METRE.));
#277=DRAUGHTING_PRE_DEFINED_CURVE_FONT('continuous');
#278=COLOUR_RGB('',0.509803950786591,0.509803950786591,0.588235318660736);
#279=AXIS2_PLACEMENT_3D('',#405,#406,#407);
#280=SURFACE_SIDE_STYLE('',(#408));
#281=EDGE_LOOP('',(#409,#410,#411,#412));
#282=AXIS2_PLACEMENT_3D('',#413,#414,#415);
#283=SURFACE_SIDE_STYLE('',(#416));
#284=EDGE_LOOP('',(#417,#418,#419,#420));
#285=AXIS2_PLACEMENT_3D('',#421,#422,#423);
#286=PRE_DEFINED_MARKER('');
#287=COLOUR_RGB('',0.509803950786591,0.509803950786591,0.588235318660736);
#288=DRAUGHTING_PRE_DEFINED_CURVE_FONT('continuous');
#289=COLOUR_RGB('',0.509803950786591,0.509803950786591,0.588235318660736);
#290=CARTESIAN_POINT('',(-1.46182452442823E-012,12.5,3.74999999999994));
#291=VECTOR('',#424,1.0);
#292=DRAUGHTING_PRE_DEFINED_CURVE_FONT('continuous');
#293=COLOUR_RGB('',0.509803950786591,0.509803950786591,0.588235318660736);
#294=CARTESIAN_POINT('',(-1.42246384831984E-012,12.1650635094611,8.74999999999996));
#295=VECTOR('',#425,1.0);
#296=DRAUGHTING_PRE_DEFINED_CURVE_FONT('continuous');
#297=COLOUR_RGB('',0.509803950786591,0.509803950786591,0.588235318660736);
#298=AXIS2_PLACEMENT_3D('',#426,#427,#428);
#299=DRAUGHTING_PRE_DEFINED_CURVE_FONT('continuous');
#300=COLOUR_RGB('',0.509803950786591,0.509803950786591,0.588235318660736);
#301=CARTESIAN_POINT('',(7.12236912812184E-013,-5.99999999999997,-8.50000000000006));
#302=VECTOR('',#429,1.0);
#303=DRAUGHTING_PRE_DEFINED_CURVE_FONT('continuous');
#304=COLOUR_RGB('',0.509803950786591,0.509803950786591,0.588235318660736);
#305=AXIS2_PLACEMENT_3D('',#430,#431,#432);
#306=SURFACE_SIDE_STYLE('',(#433));
#307=EDGE_LOOP('',(#434,#435));
#308=EDGE_LOOP('',(#436,#437));
#309=AXIS2_PLACEMENT_3D('',#438,#439,#440);
#310=DRAUGHTING_PRE_DEFINED_CURVE_FONT('continuous');
#311=COLOUR_RGB('',0.509803950786591,0.509803950786591,0.588235318660736);
#312=AXIS2_PLACEMENT_3D('',#441,#442,#443);
#313=DRAUGHTING_PRE_DEFINED_CURVE_FONT('continuous');
#314=COLOUR_RGB('',0.509803950786591,0.509803950786591,0.588235318660736);
#315=AXIS2_PLACEMENT_3D('',#444,#445,#446);
#316=DRAUGHTING_PRE_DEFINED_CURVE_FONT('continuous');
#317=COLOUR_RGB('',0.509803950786591,0.509803950786591,0.588235318660736);
#318=AXIS2_PLACEMENT_3D('',#447,#448,#449);
#319=DRAUGHTING_PRE_DEFINED_CURVE_FONT('continuous');
#320=COLOUR_RGB('',0.509803950786591,0.509803950786591,0.588235318660736);
#321=CARTESIAN_POINT('',(1.43673566059907E-012,-12.1650635094611,8.74999999999996));
#322=VECTOR('',#450,1.0);
#323=DRAUGHTING_PRE_DEFINED_CURVE_FONT('continuous');
#324=COLOUR_RGB('',0.509803950786591,0.509803950786591,0.588235318660736);
#325=AXIS2_PLACEMENT_3D('',#451,#452,#453);
#326=PRE_DEFINED_MARKER('');
#327=COLOUR_RGB('',0.509803950786591,0.509803950786591,0.588235318660736);
#328=PRE_DEFINED_MARKER('');
#329=COLOUR_RGB('',0.509803950786591,0.509803950786591,0.588235318660736);
#330=DRAUGHTING_PRE_DEFINED_CURVE_FONT('continuous');
#331=COLOUR_RGB('',0.509803950786591,0.509803950786591,0.588235318660736);
#332=AXIS2_PLACEMENT_3D('',#454,#455,#456);
#333=DRAUGHTING_PRE_DEFINED_CURVE_FONT('continuous');
#334=COLOUR_RGB('',0.509803950786591,0.509803950786591,0.588235318660736);
#335=CARTESIAN_POINT('',(1.47609633670746E-012,-12.5,3.74999999999994));
#336=VECTOR('',#457,1.0);
#337=PRE_DEFINED_MARKER('');
#338=COLOUR_RGB('',0.509803950786591,0.509803950786591,0.588235318660736);
#339=SURFACE_SIDE_STYLE('',(#458));
#340=DRAUGHTING_PRE_DEFINED_CURVE_FONT('continuous');
#341=COLOUR_RGB('',0.509803950786591,0.509803950786591,0.588235318660736);
#342=AXIS2_PLACEMENT_3D('',#459,#460,#461);
#343=PRE_DEFINED_MARKER('');
#344=COLOUR_RGB('',0.509803950786591,0.509803950786591,0.588235318660736);
#345=SURFACE_SIDE_STYLE('',(#462));
#346=EDGE_LOOP('',(#463,#464,#465,#466));
#347=AXIS2_PLACEMENT_3D('',#467,#468,#469);
#348=DRAUGHTING_PRE_DEFINED_CURVE_FONT('continuous');
#349=COLOUR_RGB('',0.509803950786591,0.509803950786591,0.588235318660736);
#350=AXIS2_PLACEMENT_3D('',#470,#471,#472);
#351=DRAUGHTING_PRE_DEFINED_CURVE_FONT('continuous');
#352=COLOUR_RGB('',0.509803950786591,0.509803950786591,0.588235318660736);
#353=CARTESIAN_POINT('',(-6.9796510053295E-013,6.00000000000003,-8.50000000000006));
#354=VECTOR('',#473,1.0);
#355=SURFACE_SIDE_STYLE('',(#474));
#356=EDGE_LOOP('',(#475,#476));
#357=AXIS2_PLACEMENT_3D('',#477,#478,#479);
#358=DRAUGHTING_PRE_DEFINED_CURVE_FONT('continuous');
#359=COLOUR_RGB('',0.509803950786591,0.509803950786591,0.588235318660736);
#360=CARTESIAN_POINT('',(-6.82220830089594E-013,5.86602540378448,-17.5000000000001));
#361=VECTOR('',#480,1.0);
#362=PRE_DEFINED_MARKER('');
#363=COLOUR_RGB('',0.509803950786591,0.509803950786591,0.588235318660736);
#364=PRE_DEFINED_MARKER('');
#365=COLOUR_RGB('',0.509803950786591,0.509803950786591,0.588235318660736);
#366=PRE_DEFINED_MARKER('');
#367=COLOUR_RGB('',0.509803950786591,0.509803950786591,0.588235318660736);
#368=PRE_DEFINED_MARKER('');
#369=COLOUR_RGB('',0.509803950786591,0.509803950786591,0.588235318660736);
#370=DRAUGHTING_PRE_DEFINED_CURVE_FONT('continuous');
#371=COLOUR_RGB('',0.509803950786591,0.509803950786591,0.588235318660736);
#372=AXIS2_PLACEMENT_3D('',#481,#482,#483);
#373=SURFACE_SIDE_STYLE('',(#484));
#374=EDGE_LOOP('',(#485,#486,#487,#488));
#375=AXIS2_PLACEMENT_3D('',#489,#490,#491);
#376=DRAUGHTING_PRE_DEFINED_CURVE_FONT('continuous');
#377=COLOUR_RGB('',0.509803950786591,0.509803950786591,0.588235318660736);
#378=CARTESIAN_POINT('',(6.96492642368828E-013,-5.86602540378442,-17.5000000000001));
#379=VECTOR('',#492,1.0);
#380=PRE_DEFINED_MARKER('');
#381=COLOUR_RGB('',0.509803950786591,0.509803950786591,0.588235318660736);
#382=SURFACE_SIDE_STYLE('',(#493));
#383=EDGE_LOOP('',(#494,#495,#496,#497));
#384=AXIS2_PLACEMENT_3D('',#498,#499,#500);
#385=SURFACE_SIDE_STYLE('',(#501));
#386=EDGE_LOOP('',(#502,#503,#504,#505));
#387=AXIS2_PLACEMENT_3D('',#506,#507,#508);
#388=SURFACE_SIDE_STYLE('',(#509));
#389=EDGE_LOOP('',(#510,#511,#512,#513));
#390=AXIS2_PLACEMENT_3D('',#514,#515,#516);
#391=PRE_DEFINED_MARKER('');
#392=COLOUR_RGB('',0.509803950786591,0.509803950786591,0.588235318660736);
#393=PRE_DEFINED_MARKER('');
#394=COLOUR_RGB('',0.509803950786591,0.509803950786591,0.588235318660736);
#395=DRAUGHTING_PRE_DEFINED_CURVE_FONT('continuous');
#396=COLOUR_RGB('',0.509803950786591,0.509803950786591,0.588235318660736);
#397=AXIS2_PLACEMENT_3D('',#517,#518,#519);
#398=SURFACE_SIDE_STYLE('',(#520));
#399=EDGE_LOOP('',(#521,#522));
#400=AXIS2_PLACEMENT_3D('',#523,#524,#525);
#401=SURFACE_SIDE_STYLE('',(#526));
#402=EDGE_LOOP('',(#527,#528,#529,#530));
#403=AXIS2_PLACEMENT_3D('',#531,#532,#533);
#405=CARTESIAN_POINT('',(7.13590613961699E-015,2.8421709430404E-014,7.49999999999994));
#406=DIRECTION('',(0.0,0.0,1.0));
#407=DIRECTION('',(1.1763929508081E-013,-1.0,0.0));
#408=SURFACE_STYLE_FILL_AREA(#534);
#409=ORIENTED_EDGE('',*,*,#82,.T.);
#410=ORIENTED_EDGE('',*,*,#88,.F.);
#411=ORIENTED_EDGE('',*,*,#118,.T.);
#412=ORIENTED_EDGE('',*,*,#92,.T.);
#413=CARTESIAN_POINT('',(7.13590613961699E-015,2.8421709430404E-014,-8.50000000000006));
#414=DIRECTION('',(-0.0,-0.0,-1.0));
#415=DIRECTION('',(1.1763929508081E-013,-1.0,0.0));
#416=SURFACE_STYLE_FILL_AREA(#535);
#417=ORIENTED_EDGE('',*,*,#104,.F.);
#418=ORIENTED_EDGE('',*,*,#90,.T.);
#419=ORIENTED_EDGE('',*,*,#76,.F.);
#420=ORIENTED_EDGE('',*,*,#132,.F.);
#421=CARTESIAN_POINT('',(7.13590613961699E-015,2.8421709430404E-014,3.74999999999994));
#422=DIRECTION('',(-0.0,-0.0,-1.0));
#423=DIRECTION('',(1.1763929508081E-013,-1.0,0.0));
#424=DIRECTION('',(-0.0,-0.0,-1.0));
#425=DIRECTION('',(-3.04155948746367E-014,0.258819045102521,-0.965925826289068));
#426=CARTESIAN_POINT('',(7.13590613961699E-015,2.8421709430404E-014,9.99999999999997));
#427=DIRECTION('',(0.0,0.0,1.0));
#428=DIRECTION('',(1.1763929508081E-013,-1.0,0.0));
#429=DIRECTION('',(0.0,0.0,1.0));
#430=CARTESIAN_POINT('',(7.13590613961699E-015,2.8421709430404E-014,-5.6843418860808E-014));
#431=DIRECTION('',(0.0,0.0,1.0));
#432=DIRECTION('',(1.1763929508081E-013,-1.0,0.0));
#433=SURFACE_STYLE_FILL_AREA(#536);
#434=ORIENTED_EDGE('',*,*,#90,.F.);
#435=ORIENTED_EDGE('',*,*,#84,.F.);
#436=ORIENTED_EDGE('',*,*,#150,.T.);
#437=ORIENTED_EDGE('',*,*,#88,.T.);
#438=CARTESIAN_POINT('',(6.53891054212858E-015,-9.24999999999997,-5.6843418860808E-014));
#439=DIRECTION('',(0.0,0.0,-1.0));
#440=DIRECTION('',(1.83690953073357E-016,1.0,0.0));
#441=CARTESIAN_POINT('',(7.13590613961699E-015,2.8421709430404E-014,-5.6843418860808E-014));
#442=DIRECTION('',(0.0,0.0,1.0));
#443=DIRECTION('',(1.1763929508081E-013,-1.0,0.0));
#444=CARTESIAN_POINT('',(7.13590613961699E-015,2.8421709430404E-014,-5.6843418860808E-014));
#445=DIRECTION('',(0.0,0.0,1.0));
#446=DIRECTION('',(1.1763929508081E-013,-1.0,0.0));
#447=CARTESIAN_POINT('',(7.13590613961699E-015,2.8421709430404E-014,-17.0000000000001));
#448=DIRECTION('',(0.0,0.0,1.0));
#449=DIRECTION('',(1.1763929508081E-013,-1.0,0.0));
#450=DIRECTION('',(-3.04155948746367E-014,0.258819045102521,0.965925826289068));
#451=CARTESIAN_POINT('',(7.13590613961699E-015,2.8421709430404E-014,9.99999999999997));
#452=DIRECTION('',(0.0,0.0,1.0));
#453=DIRECTION('',(1.1763929508081E-013,-1.0,0.0));
#454=CARTESIAN_POINT('',(7.13590613961699E-015,2.8421709430404E-014,-18.0000000000001));
#455=DIRECTION('',(0.0,0.0,1.0));
#456=DIRECTION('',(1.1763929508081E-013,-1.0,0.0));
#457=DIRECTION('',(0.0,0.0,1.0));
#458=SURFACE_STYLE_FILL_AREA(#537);
#459=CARTESIAN_POINT('',(7.13590613961699E-015,2.8421709430404E-014,-18.0000000000001));
#460=DIRECTION('',(0.0,0.0,1.0));
#461=DIRECTION('',(1.1763929508081E-013,-1.0,0.0));
#462=SURFACE_STYLE_FILL_AREA(#538);
#463=ORIENTED_EDGE('',*,*,#94,.T.);
#464=ORIENTED_EDGE('',*,*,#96,.F.);
#465=ORIENTED_EDGE('',*,*,#78,.T.);
#466=ORIENTED_EDGE('',*,*,#68,.T.);
#467=CARTESIAN_POINT('',(7.13590613961699E-015,2.8421709430404E-014,8.74999999999996));
#468=DIRECTION('',(-0.0,-0.0,-1.0));
#469=DIRECTION('',(1.1763929508081E-013,-1.0,0.0));
#470=CARTESIAN_POINT('',(7.13590613961699E-015,2.8421709430404E-014,-17.0000000000001));
#471=DIRECTION('',(0.0,0.0,1.0));
#472=DIRECTION('',(1.1763929508081E-013,-1.0,0.0));
#473=DIRECTION('',(-0.0,-0.0,-1.0));
#474=SURFACE_STYLE_FILL_AREA(#539);
#475=ORIENTED_EDGE('',*,*,#80,.T.);
#476=ORIENTED_EDGE('',*,*,#96,.T.);
#477=CARTESIAN_POINT('',(7.76381138142598E-015,-5.91506350946106,9.99999999999997));
#478=DIRECTION('',(0.0,0.0,1.0));
#479=DIRECTION('',(-1.83690953073357E-016,-1.0,0.0));
#480=DIRECTION('',(3.04155948746346E-014,-0.258819045102504,-0.965925826289073));
#481=CARTESIAN_POINT('',(7.13590613961699E-015,2.8421709430404E-014,7.49999999999994));
#482=DIRECTION('',(0.0,0.0,1.0));
#483=DIRECTION('',(1.1763929508081E-013,-1.0,0.0));
#484=SURFACE_STYLE_FILL_AREA(#540);
#485=ORIENTED_EDGE('',*,*,#82,.F.);
#486=ORIENTED_EDGE('',*,*,#116,.T.);
#487=ORIENTED_EDGE('',*,*,#118,.F.);
#488=ORIENTED_EDGE('',*,*,#150,.F.);
#489=CARTESIAN_POINT('',(7.13590613961699E-015,2.8421709430404E-014,-8.50000000000006));
#490=DIRECTION('',(-0.0,-0.0,-1.0));
#491=DIRECTION('',(1.1763929508081E-013,-1.0,0.0));
#492=DIRECTION('',(3.04155948746346E-014,-0.258819045102504,0.965925826289073));
#493=SURFACE_STYLE_FILL_AREA(#541);
#494=ORIENTED_EDGE('',*,*,#136,.T.);
#495=ORIENTED_EDGE('',*,*,#92,.F.);
#496=ORIENTED_EDGE('',*,*,#122,.T.);
#497=ORIENTED_EDGE('',*,*,#102,.T.);
#498=CARTESIAN_POINT('',(7.13590613961699E-015,2.8421709430404E-014,-17.5000000000001));
#499=DIRECTION('',(-0.0,0.0,1.0));
#500=DIRECTION('',(1.1763929508081E-013,-1.0,0.0));
#501=SURFACE_STYLE_FILL_AREA(#542);
#502=ORIENTED_EDGE('',*,*,#136,.F.);
#503=ORIENTED_EDGE('',*,*,#110,.T.);
#504=ORIENTED_EDGE('',*,*,#122,.F.);
#505=ORIENTED_EDGE('',*,*,#116,.F.);
#506=CARTESIAN_POINT('',(7.13590613961699E-015,2.8421709430404E-014,-17.5000000000001));
#507=DIRECTION('',(-0.0,0.0,1.0));
#508=DIRECTION('',(1.1763929508081E-013,-1.0,0.0));
#509=SURFACE_STYLE_FILL_AREA(#543);
#510=ORIENTED_EDGE('',*,*,#104,.T.);
#511=ORIENTED_EDGE('',*,*,#68,.F.);
#512=ORIENTED_EDGE('',*,*,#76,.T.);
#513=ORIENTED_EDGE('',*,*,#84,.T.);
#514=CARTESIAN_POINT('',(7.13590613961699E-015,2.8421709430404E-014,3.74999999999994));
#515=DIRECTION('',(-0.0,-0.0,-1.0));
#516=DIRECTION('',(1.1763929508081E-013,-1.0,0.0));
#517=CARTESIAN_POINT('',(7.13590613961699E-015,2.8421709430404E-014,-5.6843418860808E-014));
#518=DIRECTION('',(0.0,0.0,1.0));
#519=DIRECTION('',(1.1763929508081E-013,-1.0,0.0));
#520=SURFACE_STYLE_FILL_AREA(#544);
#521=ORIENTED_EDGE('',*,*,#110,.F.);
#522=ORIENTED_EDGE('',*,*,#102,.F.);
#523=CARTESIAN_POINT('',(6.60944320166337E-015,-2.86602540378442,-18.0));
#524=DIRECTION('',(0.0,0.0,-1.0));
#525=DIRECTION('',(1.83690953073357E-016,1.0,0.0));
#526=SURFACE_STYLE_FILL_AREA(#545);
#527=ORIENTED_EDGE('',*,*,#94,.F.);
#528=ORIENTED_EDGE('',*,*,#132,.T.);
#529=ORIENTED_EDGE('',*,*,#78,.F.);
#530=ORIENTED_EDGE('',*,*,#80,.F.);
#531=CARTESIAN_POINT('',(7.13590613961699E-015,2.8421709430404E-014,8.74999999999996));
#532=DIRECTION('',(-0.0,-0.0,-1.0));
#533=DIRECTION('',(1.1763929508081E-013,-1.0,0.0));
#534=FILL_AREA_STYLE('',(#546));
#535=FILL_AREA_STYLE('',(#547));
#536=FILL_AREA_STYLE('',(#548));
#537=FILL_AREA_STYLE('',(#549));
#538=FILL_AREA_STYLE('',(#550));
#539=FILL_AREA_STYLE('',(#551));
#540=FILL_AREA_STYLE('',(#552));
#541=FILL_AREA_STYLE('',(#553));
#542=FILL_AREA_STYLE('',(#554));
#543=FILL_AREA_STYLE('',(#555));
#544=FILL_AREA_STYLE('',(#556));
#545=FILL_AREA_STYLE('',(#557));
#546=FILL_AREA_STYLE_COLOUR('',#558);
#547=FILL_AREA_STYLE_COLOUR('',#559);
#548=FILL_AREA_STYLE_COLOUR('',#560);
#549=FILL_AREA_STYLE_COLOUR('',#561);
#550=FILL_AREA_STYLE_COLOUR('',#562);
#551=FILL_AREA_STYLE_COLOUR('',#563);
#552=FILL_AREA_STYLE_COLOUR('',#564);
#553=FILL_AREA_STYLE_COLOUR('',#565);
#554=FILL_AREA_STYLE_COLOUR('',#566);
#555=FILL_AREA_STYLE_COLOUR('',#567);
#556=FILL_AREA_STYLE_COLOUR('',#568);
#557=FILL_AREA_STYLE_COLOUR('',#569);
#558=COLOUR_RGB('',0.509803950786591,0.509803950786591,0.588235318660736);
#559=COLOUR_RGB('',0.509803950786591,0.509803950786591,0.588235318660736);
#560=COLOUR_RGB('',0.509803950786591,0.509803950786591,0.588235318660736);
#561=COLOUR_RGB('',0.509803950786591,0.509803950786591,0.588235318660736);
#562=COLOUR_RGB('',0.509803950786591,0.509803950786591,0.588235318660736);
#563=COLOUR_RGB('',0.509803950786591,0.509803950786591,0.588235318660736);
#564=COLOUR_RGB('',0.509803950786591,0.509803950786591,0.588235318660736);
#565=COLOUR_RGB('',0.509803950786591,0.509803950786591,0.588235318660736);
#566=COLOUR_RGB('',0.509803950786591,0.509803950786591,0.588235318660736);
#567=COLOUR_RGB('',0.509803950786591,0.509803950786591,0.588235318660736);
#568=COLOUR_RGB('',0.509803950786591,0.509803950786591,0.588235318660736);
#569=COLOUR_RGB('',0.509803950786591,0.509803950786591,0.588235318660736);
ENDSEC;
END-ISO-10303-21;
