ISO-10303-21;
HEADER;
FILE_DESCRIPTION(('STEP AP214'),'1');
FILE_NAME(' ','  ',('TraceParts'),('TraceParts S.A.'),'XStep 1.0',' ',' ');
FILE_SCHEMA(('automotive_design'));
ENDSEC;
DATA;
#1=MECHANICAL_DESIGN_GEOMETRIC_PRESENTATION_REPRESENTATION(' ',(#10,#11,#12,#13,#14,#15,#16,#17,#18,#19,#20,#21,#22,#23,#24,#25,#26,#27,#28,#29,#30,#31,#32,#33,#34,#35,#36,#37,#38,#39,#40,#41,#42,#43,#44,#45,#46,#47,#48,#49,#50,#51,#52,#53),#6);
#2=PRODUCT_DEFINITION_CONTEXT('',#54,'design');
#3=APPLICATION_PROTOCOL_DEFINITION('INTERNATIONAL STANDARD','automotive_design',1994,#54);
#4=PRODUCT_CATEGORY_RELATIONSHIP('NONE','NONE',#55,#56);
#5=SHAPE_DEFINITION_REPRESENTATION(#57,#58);
#6= (GEOMETRIC_REPRESENTATION_CONTEXT(3)GLOBAL_UNCERTAINTY_ASSIGNED_CONTEXT((#61))GLOBAL_UNIT_ASSIGNED_CONTEXT((#63,#64,#65))REPRESENTATION_CONTEXT('NONE','WORKSPACE'));
#10=STYLED_ITEM('',(#67),#68);
#11=STYLED_ITEM('',(#69),#70);
#12=STYLED_ITEM('',(#71),#72);
#13=STYLED_ITEM('',(#73),#74);
#14=STYLED_ITEM('',(#75),#76);
#15=STYLED_ITEM('',(#77),#78);
#16=STYLED_ITEM('',(#79),#80);
#17=STYLED_ITEM('',(#81),#82);
#18=STYLED_ITEM('',(#83),#84);
#19=STYLED_ITEM('',(#85),#86);
#20=STYLED_ITEM('',(#87),#88);
#21=STYLED_ITEM('',(#89),#90);
#22=STYLED_ITEM('',(#91),#92);
#23=STYLED_ITEM('',(#93),#94);
#24=STYLED_ITEM('',(#95),#96);
#25=STYLED_ITEM('',(#97),#98);
#26=STYLED_ITEM('',(#99),#100);
#27=STYLED_ITEM('',(#101),#102);
#28=STYLED_ITEM('',(#103),#104);
#29=STYLED_ITEM('',(#105),#106);
#30=STYLED_ITEM('',(#107),#108);
#31=STYLED_ITEM('',(#109),#110);
#32=STYLED_ITEM('',(#111),#112);
#33=STYLED_ITEM('',(#113),#114);
#34=STYLED_ITEM('',(#115),#116);
#35=STYLED_ITEM('',(#117),#118);
#36=STYLED_ITEM('',(#119),#120);
#37=STYLED_ITEM('',(#121),#122);
#38=STYLED_ITEM('',(#123),#124);
#39=STYLED_ITEM('',(#125),#126);
#40=STYLED_ITEM('',(#127),#128);
#41=STYLED_ITEM('',(#129),#130);
#42=STYLED_ITEM('',(#131),#132);
#43=STYLED_ITEM('',(#133),#134);
#44=STYLED_ITEM('',(#135),#136);
#45=STYLED_ITEM('',(#137),#138);
#46=STYLED_ITEM('',(#139),#140);
#47=STYLED_ITEM('',(#141),#142);
#48=STYLED_ITEM('',(#143),#144);
#49=STYLED_ITEM('',(#145),#146);
#50=STYLED_ITEM('',(#147),#148);
#51=STYLED_ITEM('',(#149),#150);
#52=STYLED_ITEM('',(#151),#152);
#53=STYLED_ITEM('',(#153),#154);
#54=APPLICATION_CONTEXT(' ');
#55=PRODUCT_CATEGORY('part','NONE');
#56=PRODUCT_RELATED_PRODUCT_CATEGORY('detail',' ',(#155));
#57=PRODUCT_DEFINITION_SHAPE('NONE','NONE',#156);
#58=ADVANCED_BREP_SHAPE_REPRESENTATION('1',(#136,#157),#6);
#61=UNCERTAINTY_MEASURE_WITH_UNIT(LENGTH_MEASURE(1.0E-006),#63,'','');
#63= (CONVERSION_BASED_UNIT('MILLIMETRE',#160)LENGTH_UNIT()NAMED_UNIT(#163));
#64= (NAMED_UNIT(#165)PLANE_ANGLE_UNIT()SI_UNIT($,.RADIAN.));
#65= (NAMED_UNIT(#165)SOLID_ANGLE_UNIT()SI_UNIT($,.STERADIAN.));
#67=PRESENTATION_STYLE_ASSIGNMENT((#171));
#68=ADVANCED_FACE('',(#172),#173,.T.);
#69=PRESENTATION_STYLE_ASSIGNMENT((#174));
#70=ADVANCED_FACE('',(#175),#176,.T.);
#71=PRESENTATION_STYLE_ASSIGNMENT((#177));
#72=ADVANCED_FACE('',(#178),#179,.T.);
#73=PRESENTATION_STYLE_ASSIGNMENT((#180));
#74=EDGE_CURVE('',#106,#110,#181,.T.);
#75=PRESENTATION_STYLE_ASSIGNMENT((#182));
#76=EDGE_CURVE('',#84,#144,#183,.T.);
#77=PRESENTATION_STYLE_ASSIGNMENT((#184));
#78=VERTEX_POINT('',#185);
#79=PRESENTATION_STYLE_ASSIGNMENT((#186));
#80=EDGE_CURVE('',#78,#144,#187,.T.);
#81=PRESENTATION_STYLE_ASSIGNMENT((#188));
#82=EDGE_CURVE('',#140,#106,#189,.T.);
#83=PRESENTATION_STYLE_ASSIGNMENT((#190));
#84=VERTEX_POINT('',#191);
#85=PRESENTATION_STYLE_ASSIGNMENT((#192));
#86=ADVANCED_FACE('',(#193,#194),#195,.T.);
#87=PRESENTATION_STYLE_ASSIGNMENT((#196));
#88=VERTEX_POINT('',#197);
#89=PRESENTATION_STYLE_ASSIGNMENT((#198));
#90=ADVANCED_FACE('',(#199),#200,.T.);
#91=PRESENTATION_STYLE_ASSIGNMENT((#201));
#92=ADVANCED_FACE('',(#202),#203,.T.);
#93=PRESENTATION_STYLE_ASSIGNMENT((#204));
#94=EDGE_CURVE('',#138,#106,#205,.T.);
#95=PRESENTATION_STYLE_ASSIGNMENT((#206));
#96=EDGE_CURVE('',#110,#150,#207,.T.);
#97=PRESENTATION_STYLE_ASSIGNMENT((#208));
#98=EDGE_CURVE('',#88,#78,#209,.T.);
#99=PRESENTATION_STYLE_ASSIGNMENT((#210));
#100=EDGE_CURVE('',#138,#114,#211,.T.);
#101=PRESENTATION_STYLE_ASSIGNMENT((#212));
#102=EDGE_CURVE('',#106,#140,#213,.T.);
#103=PRESENTATION_STYLE_ASSIGNMENT((#214));
#104=EDGE_CURVE('',#88,#130,#215,.T.);
#105=PRESENTATION_STYLE_ASSIGNMENT((#216));
#106=VERTEX_POINT('',#217);
#107=PRESENTATION_STYLE_ASSIGNMENT((#218));
#108=EDGE_CURVE('',#150,#110,#219,.T.);
#109=PRESENTATION_STYLE_ASSIGNMENT((#220));
#110=VERTEX_POINT('',#221);
#111=PRESENTATION_STYLE_ASSIGNMENT((#222));
#112=EDGE_CURVE('',#84,#126,#223,.T.);
#113=PRESENTATION_STYLE_ASSIGNMENT((#224));
#114=VERTEX_POINT('',#225);
#115=PRESENTATION_STYLE_ASSIGNMENT((#226));
#116=EDGE_CURVE('',#144,#84,#227,.T.);
#117=PRESENTATION_STYLE_ASSIGNMENT((#228));
#118=ADVANCED_FACE('',(#229),#230,.T.);
#119=PRESENTATION_STYLE_ASSIGNMENT((#231));
#120=ADVANCED_FACE('',(#232),#233,.T.);
#121=PRESENTATION_STYLE_ASSIGNMENT((#234));
#122=EDGE_CURVE('',#114,#138,#235,.T.);
#123=PRESENTATION_STYLE_ASSIGNMENT((#236));
#124=EDGE_CURVE('',#150,#140,#237,.T.);
#125=PRESENTATION_STYLE_ASSIGNMENT((#238));
#126=VERTEX_POINT('',#239);
#127=PRESENTATION_STYLE_ASSIGNMENT((#240));
#128=EDGE_CURVE('',#78,#126,#241,.T.);
#129=PRESENTATION_STYLE_ASSIGNMENT((#242));
#130=VERTEX_POINT('',#243);
#131=PRESENTATION_STYLE_ASSIGNMENT((#244));
#132=ADVANCED_FACE('',(#245),#246,.T.);
#133=PRESENTATION_STYLE_ASSIGNMENT((#247));
#134=EDGE_CURVE('',#126,#130,#248,.T.);
#135=PRESENTATION_STYLE_ASSIGNMENT((#249));
#136=MANIFOLD_SOLID_BREP('1',#250);
#137=PRESENTATION_STYLE_ASSIGNMENT((#251));
#138=VERTEX_POINT('',#252);
#139=PRESENTATION_STYLE_ASSIGNMENT((#253));
#140=VERTEX_POINT('',#254);
#141=PRESENTATION_STYLE_ASSIGNMENT((#255));
#142=ADVANCED_FACE('',(#256),#257,.T.);
#143=PRESENTATION_STYLE_ASSIGNMENT((#258));
#144=VERTEX_POINT('',#259);
#145=PRESENTATION_STYLE_ASSIGNMENT((#260));
#146=EDGE_CURVE('',#126,#78,#261,.T.);
#147=PRESENTATION_STYLE_ASSIGNMENT((#262));
#148=EDGE_CURVE('',#130,#88,#263,.T.);
#149=PRESENTATION_STYLE_ASSIGNMENT((#264));
#150=VERTEX_POINT('',#265);
#151=PRESENTATION_STYLE_ASSIGNMENT((#266));
#152=ADVANCED_FACE('',(#267),#268,.T.);
#153=PRESENTATION_STYLE_ASSIGNMENT((#269));
#154=EDGE_CURVE('',#140,#114,#270,.T.);
#155=PRODUCT('1','1','PART-1-DESC',(#271));
#156=PRODUCT_DEFINITION('NONE','NONE',#272,#2);
#157=AXIS2_PLACEMENT_3D('',#273,#274,#275);
#160=LENGTH_MEASURE_WITH_UNIT(LENGTH_MEASURE(1.0),#276);
#163=DIMENSIONAL_EXPONENTS(1.0,0.0,0.0,0.0,0.0,0.0,0.0);
#165=DIMENSIONAL_EXPONENTS(0.0,0.0,0.0,0.0,0.0,0.0,0.0);
#171=SURFACE_STYLE_USAGE(.BOTH.,#277);
#172=FACE_OUTER_BOUND('',#278,.T.);
#173=CONICAL_SURFACE('',#279,1.86602540378443,0.261799387799158);
#174=SURFACE_STYLE_USAGE(.BOTH.,#280);
#175=FACE_OUTER_BOUND('',#281,.T.);
#176=CYLINDRICAL_SURFACE('',#282,3.0);
#177=SURFACE_STYLE_USAGE(.BOTH.,#283);
#178=FACE_OUTER_BOUND('',#284,.T.);
#179=CYLINDRICAL_SURFACE('',#285,2.0);
#180=CURVE_STYLE('',#286,POSITIVE_LENGTH_MEASURE(1.0E-006),#287);
#181=LINE('',#288,#289);
#182=CURVE_STYLE('',#290,POSITIVE_LENGTH_MEASURE(1.0E-006),#291);
#183=CIRCLE('',#292,2.0);
#184=POINT_STYLE(' ',#293,POSITIVE_LENGTH_MEASURE(1.0E-006),#294);
#185=CARTESIAN_POINT('',(6.8297545511614E-015,-1.99999999999997,-5.0));
#186=CURVE_STYLE('',#295,POSITIVE_LENGTH_MEASURE(1.0E-006),#296);
#187=LINE('',#297,#298);
#188=CURVE_STYLE('',#299,POSITIVE_LENGTH_MEASURE(1.0E-006),#300);
#189=CIRCLE('',#301,3.0);
#190=POINT_STYLE(' ',#302,POSITIVE_LENGTH_MEASURE(1.0E-006),#303);
#191=CARTESIAN_POINT('',(-4.01134513496705E-013,2.00000000000003,0.0));
#192=SURFACE_STYLE_USAGE(.BOTH.,#304);
#193=FACE_OUTER_BOUND('',#305,.T.);
#194=FACE_BOUND('',#306,.T.);
#195=PLANE('',#307);
#196=POINT_STYLE(' ',#308,POSITIVE_LENGTH_MEASURE(1.0E-006),#309);
#197=CARTESIAN_POINT('',(6.81774407600319E-015,-1.73205080756884,-6.0));
#198=SURFACE_STYLE_USAGE(.BOTH.,#310);
#199=FACE_OUTER_BOUND('',#311,.T.);
#200=CYLINDRICAL_SURFACE('',#312,3.0);
#201=SURFACE_STYLE_USAGE(.BOTH.,#313);
#202=FACE_OUTER_BOUND('',#314,.T.);
#203=CONICAL_SURFACE('',#315,2.83923048454133,0.261799387799161);
#204=CURVE_STYLE('',#316,POSITIVE_LENGTH_MEASURE(1.0E-006),#317);
#205=LINE('',#318,#319);
#206=CURVE_STYLE('',#320,POSITIVE_LENGTH_MEASURE(1.0E-006),#321);
#207=CIRCLE('',#322,3.0);
#208=CURVE_STYLE('',#323,POSITIVE_LENGTH_MEASURE(1.0E-006),#324);
#209=LINE('',#325,#326);
#210=CURVE_STYLE('',#327,POSITIVE_LENGTH_MEASURE(1.0E-006),#328);
#211=CIRCLE('',#329,2.67846096908266);
#212=CURVE_STYLE('',#330,POSITIVE_LENGTH_MEASURE(1.0E-006),#331);
#213=CIRCLE('',#332,3.0);
#214=CURVE_STYLE('',#333,POSITIVE_LENGTH_MEASURE(1.0E-006),#334);
#215=CIRCLE('',#335,1.73205080756887);
#216=POINT_STYLE(' ',#336,POSITIVE_LENGTH_MEASURE(1.0E-006),#337);
#217=CARTESIAN_POINT('',(-6.05269723314867E-013,3.00000000000003,3.80000000000007));
#218=CURVE_STYLE('',#338,POSITIVE_LENGTH_MEASURE(1.0E-006),#339);
#219=CIRCLE('',#340,3.0);
#220=POINT_STYLE(' ',#341,POSITIVE_LENGTH_MEASURE(1.0E-006),#342);
#221=CARTESIAN_POINT('',(-6.05269723314867E-013,3.00000000000003,0.0));
#222=CURVE_STYLE('',#343,POSITIVE_LENGTH_MEASURE(1.0E-006),#344);
#223=LINE('',#345,#346);
#224=POINT_STYLE(' ',#347,POSITIVE_LENGTH_MEASURE(1.0E-006),#348);
#225=CARTESIAN_POINT('',(7.31743058603872E-015,-2.67846096908264,4.99999999999997));
#226=CURVE_STYLE('',#349,POSITIVE_LENGTH_MEASURE(1.0E-006),#350);
#227=CIRCLE('',#351,2.0);
#228=SURFACE_STYLE_USAGE(.BOTH.,#352);
#229=FACE_OUTER_BOUND('',#353,.T.);
#230=PLANE('',#354);
#231=SURFACE_STYLE_USAGE(.BOTH.,#355);
#232=FACE_OUTER_BOUND('',#356,.T.);
#233=CONICAL_SURFACE('',#357,2.83923048454133,0.261799387799161);
#234=CURVE_STYLE('',#358,POSITIVE_LENGTH_MEASURE(1.0E-006),#359);
#235=CIRCLE('',#360,2.67846096908266);
#236=CURVE_STYLE('',#361,POSITIVE_LENGTH_MEASURE(1.0E-006),#362);
#237=LINE('',#363,#364);
#238=POINT_STYLE(' ',#365,POSITIVE_LENGTH_MEASURE(1.0E-006),#366);
#239=CARTESIAN_POINT('',(-4.01134513496705E-013,2.00000000000003,-5.0));
#240=CURVE_STYLE('',#367,POSITIVE_LENGTH_MEASURE(1.0E-006),#368);
#241=CIRCLE('',#369,2.0);
#242=POINT_STYLE(' ',#370,POSITIVE_LENGTH_MEASURE(1.0E-006),#371);
#243=CARTESIAN_POINT('',(-3.46436648879169E-013,1.7320508075689,-6.0));
#244=SURFACE_STYLE_USAGE(.BOTH.,#372);
#245=FACE_OUTER_BOUND('',#373,.T.);
#246=CONICAL_SURFACE('',#374,1.86602540378443,0.261799387799158);
#247=CURVE_STYLE('',#375,POSITIVE_LENGTH_MEASURE(1.0E-006),#376);
#248=LINE('',#377,#378);
#249=SURFACE_STYLE_USAGE(.BOTH.,#379);
#250=CLOSED_SHELL('',(#92,#90,#72,#68,#118,#132,#142,#86,#70,#120,#152));
#251=POINT_STYLE(' ',#380,POSITIVE_LENGTH_MEASURE(1.0E-006),#381);
#252=CARTESIAN_POINT('',(-5.39632285773828E-013,2.67846096908269,4.99999999999997));
#253=POINT_STYLE(' ',#382,POSITIVE_LENGTH_MEASURE(1.0E-006),#383);
#254=CARTESIAN_POINT('',(7.18489039376989E-015,-2.99999999999997,3.80000000000007));
#255=SURFACE_STYLE_USAGE(.BOTH.,#384);
#256=FACE_OUTER_BOUND('',#385,.T.);
#257=CYLINDRICAL_SURFACE('',#386,2.0);
#258=POINT_STYLE(' ',#387,POSITIVE_LENGTH_MEASURE(1.0E-006),#388);
#259=CARTESIAN_POINT('',(7.13590613961699E-015,-1.99999999999997,0.0));
#260=CURVE_STYLE('',#389,POSITIVE_LENGTH_MEASURE(1.0E-006),#390);
#261=CIRCLE('',#391,2.0);
#262=CURVE_STYLE('',#392,POSITIVE_LENGTH_MEASURE(1.0E-006),#393);
#263=CIRCLE('',#394,1.73205080756887);
#264=POINT_STYLE(' ',#395,POSITIVE_LENGTH_MEASURE(1.0E-006),#396);
#265=CARTESIAN_POINT('',(6.95221518654363E-015,-2.99999999999997,0.0));
#266=SURFACE_STYLE_USAGE(.BOTH.,#397);
#267=FACE_OUTER_BOUND('',#398,.T.);
#268=PLANE('',#399);
#269=CURVE_STYLE('',#400,POSITIVE_LENGTH_MEASURE(1.0E-006),#401);
#270=LINE('',#402,#403);
#271=PRODUCT_CONTEXT('',#54,'mechanical');
#272=PRODUCT_DEFINITION_FORMATION_WITH_SPECIFIED_SOURCE(' ','NONE',#155,.NOT_KNOWN.);
#273=CARTESIAN_POINT('',(0.0,0.0,0.0));
#274=DIRECTION('',(0.0,0.0,1.0));
#275=DIRECTION('',(1.0,0.0,0.0));
#276= (NAMED_UNIT(#163)LENGTH_UNIT()SI_UNIT(.MILLI.,.METRE.));
#277=SURFACE_SIDE_STYLE('',(#405));
#278=EDGE_LOOP('',(#406,#407,#408,#409));
#279=AXIS2_PLACEMENT_3D('',#410,#411,#412);
#280=SURFACE_SIDE_STYLE('',(#413));
#281=EDGE_LOOP('',(#414,#415,#416,#417));
#282=AXIS2_PLACEMENT_3D('',#418,#419,#420);
#283=SURFACE_SIDE_STYLE('',(#421));
#284=EDGE_LOOP('',(#422,#423,#424,#425));
#285=AXIS2_PLACEMENT_3D('',#426,#427,#428);
#286=DRAUGHTING_PRE_DEFINED_CURVE_FONT('continuous');
#287=COLOUR_RGB('',0.509803950786591,0.509803950786591,0.588235318660736);
#288=CARTESIAN_POINT('',(-6.05269723314867E-013,3.00000000000003,1.90000000000003));
#289=VECTOR('',#429,1.0);
#290=DRAUGHTING_PRE_DEFINED_CURVE_FONT('continuous');
#291=COLOUR_RGB('',0.509803950786591,0.509803950786591,0.588235318660736);
#292=AXIS2_PLACEMENT_3D('',#430,#431,#432);
#293=PRE_DEFINED_MARKER('');
#294=COLOUR_RGB('',0.509803950786591,0.509803950786591,0.588235318660736);
#295=DRAUGHTING_PRE_DEFINED_CURVE_FONT('continuous');
#296=COLOUR_RGB('',0.509803950786591,0.509803950786591,0.588235318660736);
#297=CARTESIAN_POINT('',(4.15406325775939E-013,-1.99999999999997,-2.5));
#298=VECTOR('',#433,1.0);
#299=DRAUGHTING_PRE_DEFINED_CURVE_FONT('continuous');
#300=COLOUR_RGB('',0.509803950786591,0.509803950786591,0.588235318660736);
#301=AXIS2_PLACEMENT_3D('',#434,#435,#436);
#302=PRE_DEFINED_MARKER('');
#303=COLOUR_RGB('',0.509803950786591,0.509803950786591,0.588235318660736);
#304=SURFACE_SIDE_STYLE('',(#437));
#305=EDGE_LOOP('',(#438,#439));
#306=EDGE_LOOP('',(#440,#441));
#307=AXIS2_PLACEMENT_3D('',#442,#443,#444);
#308=PRE_DEFINED_MARKER('');
#309=COLOUR_RGB('',0.509803950786591,0.509803950786591,0.588235318660736);
#310=SURFACE_SIDE_STYLE('',(#445));
#311=EDGE_LOOP('',(#446,#447,#448,#449));
#312=AXIS2_PLACEMENT_3D('',#450,#451,#452);
#313=SURFACE_SIDE_STYLE('',(#453));
#314=EDGE_LOOP('',(#454,#455,#456,#457));
#315=AXIS2_PLACEMENT_3D('',#458,#459,#460);
#316=DRAUGHTING_PRE_DEFINED_CURVE_FONT('continuous');
#317=COLOUR_RGB('',0.509803950786591,0.509803950786591,0.588235318660736);
#318=CARTESIAN_POINT('',(-5.72451004544347E-013,2.83923048454136,4.40000000000002));
#319=VECTOR('',#461,1.0);
#320=DRAUGHTING_PRE_DEFINED_CURVE_FONT('continuous');
#321=COLOUR_RGB('',0.509803950786591,0.509803950786591,0.588235318660736);
#322=AXIS2_PLACEMENT_3D('',#462,#463,#464);
#323=DRAUGHTING_PRE_DEFINED_CURVE_FONT('continuous');
#324=COLOUR_RGB('',0.509803950786591,0.509803950786591,0.588235318660736);
#325=CARTESIAN_POINT('',(3.88057393467171E-013,-1.86602540378441,-5.5));
#326=VECTOR('',#465,1.0);
#327=DRAUGHTING_PRE_DEFINED_CURVE_FONT('continuous');
#328=COLOUR_RGB('',0.509803950786591,0.509803950786591,0.588235318660736);
#329=AXIS2_PLACEMENT_3D('',#466,#467,#468);
#330=DRAUGHTING_PRE_DEFINED_CURVE_FONT('continuous');
#331=COLOUR_RGB('',0.509803950786591,0.509803950786591,0.588235318660736);
#332=AXIS2_PLACEMENT_3D('',#469,#470,#471);
#333=DRAUGHTING_PRE_DEFINED_CURVE_FONT('continuous');
#334=COLOUR_RGB('',0.509803950786591,0.509803950786591,0.588235318660736);
#335=AXIS2_PLACEMENT_3D('',#472,#473,#474);
#336=PRE_DEFINED_MARKER('');
#337=COLOUR_RGB('',0.509803950786591,0.509803950786591,0.588235318660736);
#338=DRAUGHTING_PRE_DEFINED_CURVE_FONT('continuous');
#339=COLOUR_RGB('',0.509803950786591,0.509803950786591,0.588235318660736);
#340=AXIS2_PLACEMENT_3D('',#475,#476,#477);
#341=PRE_DEFINED_MARKER('');
#342=COLOUR_RGB('',0.509803950786591,0.509803950786591,0.588235318660736);
#343=DRAUGHTING_PRE_DEFINED_CURVE_FONT('continuous');
#344=COLOUR_RGB('',0.509803950786591,0.509803950786591,0.588235318660736);
#345=CARTESIAN_POINT('',(-4.01134513496705E-013,2.00000000000003,-2.5));
#346=VECTOR('',#478,1.0);
#347=PRE_DEFINED_MARKER('');
#348=COLOUR_RGB('',0.509803950786591,0.509803950786591,0.588235318660736);
#349=DRAUGHTING_PRE_DEFINED_CURVE_FONT('continuous');
#350=COLOUR_RGB('',0.509803950786591,0.509803950786591,0.588235318660736);
#351=AXIS2_PLACEMENT_3D('',#479,#480,#481);
#352=SURFACE_SIDE_STYLE('',(#482));
#353=EDGE_LOOP('',(#483,#484));
#354=AXIS2_PLACEMENT_3D('',#485,#486,#487);
#355=SURFACE_SIDE_STYLE('',(#488));
#356=EDGE_LOOP('',(#489,#490,#491,#492));
#357=AXIS2_PLACEMENT_3D('',#493,#494,#495);
#358=DRAUGHTING_PRE_DEFINED_CURVE_FONT('continuous');
#359=COLOUR_RGB('',0.509803950786591,0.509803950786591,0.588235318660736);
#360=AXIS2_PLACEMENT_3D('',#496,#497,#498);
#361=DRAUGHTING_PRE_DEFINED_CURVE_FONT('continuous');
#362=COLOUR_RGB('',0.509803950786591,0.509803950786591,0.588235318660736);
#363=CARTESIAN_POINT('',(6.19541535594101E-013,-2.99999999999997,1.90000000000003));
#364=VECTOR('',#499,1.0);
#365=PRE_DEFINED_MARKER('');
#366=COLOUR_RGB('',0.509803950786591,0.509803950786591,0.588235318660736);
#367=DRAUGHTING_PRE_DEFINED_CURVE_FONT('continuous');
#368=COLOUR_RGB('',0.509803950786591,0.509803950786591,0.588235318660736);
#369=AXIS2_PLACEMENT_3D('',#500,#501,#502);
#370=PRE_DEFINED_MARKER('');
#371=COLOUR_RGB('',0.509803950786591,0.509803950786591,0.588235318660736);
#372=SURFACE_SIDE_STYLE('',(#503));
#373=EDGE_LOOP('',(#504,#505,#506,#507));
#374=AXIS2_PLACEMENT_3D('',#508,#509,#510);
#375=DRAUGHTING_PRE_DEFINED_CURVE_FONT('continuous');
#376=COLOUR_RGB('',0.509803950786591,0.509803950786591,0.588235318660736);
#377=CARTESIAN_POINT('',(-3.73785581187937E-013,1.86602540378446,-5.5));
#378=VECTOR('',#511,1.0);
#379=SURFACE_SIDE_STYLE('',(#512));
#380=PRE_DEFINED_MARKER('');
#381=COLOUR_RGB('',0.509803950786591,0.509803950786591,0.588235318660736);
#382=PRE_DEFINED_MARKER('');
#383=COLOUR_RGB('',0.509803950786591,0.509803950786591,0.588235318660736);
#384=SURFACE_SIDE_STYLE('',(#513));
#385=EDGE_LOOP('',(#514,#515,#516,#517));
#386=AXIS2_PLACEMENT_3D('',#518,#519,#520);
#387=PRE_DEFINED_MARKER('');
#388=COLOUR_RGB('',0.509803950786591,0.509803950786591,0.588235318660736);
#389=DRAUGHTING_PRE_DEFINED_CURVE_FONT('continuous');
#390=COLOUR_RGB('',0.509803950786591,0.509803950786591,0.588235318660736);
#391=AXIS2_PLACEMENT_3D('',#521,#522,#523);
#392=DRAUGHTING_PRE_DEFINED_CURVE_FONT('continuous');
#393=COLOUR_RGB('',0.509803950786591,0.509803950786591,0.588235318660736);
#394=AXIS2_PLACEMENT_3D('',#524,#525,#526);
#395=PRE_DEFINED_MARKER('');
#396=COLOUR_RGB('',0.509803950786591,0.509803950786591,0.588235318660736);
#397=SURFACE_SIDE_STYLE('',(#527));
#398=EDGE_LOOP('',(#528,#529));
#399=AXIS2_PLACEMENT_3D('',#530,#531,#532);
#400=DRAUGHTING_PRE_DEFINED_CURVE_FONT('continuous');
#401=COLOUR_RGB('',0.509803950786591,0.509803950786591,0.588235318660736);
#402=CARTESIAN_POINT('',(5.86722816823581E-013,-2.8392304845413,4.40000000000002));
#403=VECTOR('',#533,1.0);
#405=SURFACE_STYLE_FILL_AREA(#534);
#406=ORIENTED_EDGE('',*,*,#98,.F.);
#407=ORIENTED_EDGE('',*,*,#104,.T.);
#408=ORIENTED_EDGE('',*,*,#134,.F.);
#409=ORIENTED_EDGE('',*,*,#128,.F.);
#410=CARTESIAN_POINT('',(7.13590613961699E-015,2.8421709430404E-014,-5.5));
#411=DIRECTION('',(-0.0,0.0,1.0));
#412=DIRECTION('',(2.04257670453543E-013,-1.0,0.0));
#413=SURFACE_STYLE_FILL_AREA(#535);
#414=ORIENTED_EDGE('',*,*,#124,.T.);
#415=ORIENTED_EDGE('',*,*,#102,.F.);
#416=ORIENTED_EDGE('',*,*,#74,.T.);
#417=ORIENTED_EDGE('',*,*,#96,.T.);
#418=CARTESIAN_POINT('',(7.13590613961699E-015,2.8421709430404E-014,1.90000000000003));
#419=DIRECTION('',(-0.0,-0.0,-1.0));
#420=DIRECTION('',(2.04257670453543E-013,-1.0,0.0));
#421=SURFACE_STYLE_FILL_AREA(#536);
#422=ORIENTED_EDGE('',*,*,#80,.F.);
#423=ORIENTED_EDGE('',*,*,#128,.T.);
#424=ORIENTED_EDGE('',*,*,#112,.F.);
#425=ORIENTED_EDGE('',*,*,#116,.F.);
#426=CARTESIAN_POINT('',(7.13590613961699E-015,2.8421709430404E-014,-2.5));
#427=DIRECTION('',(-0.0,-0.0,-1.0));
#428=DIRECTION('',(2.04257670453543E-013,-1.0,0.0));
#429=DIRECTION('',(-0.0,-0.0,-1.0));
#430=CARTESIAN_POINT('',(7.13590613961699E-015,2.8421709430404E-014,0.0));
#431=DIRECTION('',(0.0,0.0,1.0));
#432=DIRECTION('',(2.04257670453543E-013,-1.0,0.0));
#433=DIRECTION('',(0.0,0.0,1.0));
#434=CARTESIAN_POINT('',(7.13590613961699E-015,2.8421709430404E-014,3.80000000000007));
#435=DIRECTION('',(0.0,0.0,1.0));
#436=DIRECTION('',(2.04257670453543E-013,-1.0,0.0));
#437=SURFACE_STYLE_FILL_AREA(#537);
#438=ORIENTED_EDGE('',*,*,#108,.F.);
#439=ORIENTED_EDGE('',*,*,#96,.F.);
#440=ORIENTED_EDGE('',*,*,#116,.T.);
#441=ORIENTED_EDGE('',*,*,#76,.T.);
#442=CARTESIAN_POINT('',(7.04406066308031E-015,-2.49999999999997,0.0));
#443=DIRECTION('',(0.0,0.0,-1.0));
#444=DIRECTION('',(1.83690953073357E-016,1.0,0.0));
#445=SURFACE_STYLE_FILL_AREA(#538);
#446=ORIENTED_EDGE('',*,*,#124,.F.);
#447=ORIENTED_EDGE('',*,*,#108,.T.);
#448=ORIENTED_EDGE('',*,*,#74,.F.);
#449=ORIENTED_EDGE('',*,*,#82,.F.);
#450=CARTESIAN_POINT('',(7.13590613961699E-015,2.8421709430404E-014,1.90000000000003));
#451=DIRECTION('',(-0.0,-0.0,-1.0));
#452=DIRECTION('',(2.04257670453543E-013,-1.0,0.0));
#453=SURFACE_STYLE_FILL_AREA(#539);
#454=ORIENTED_EDGE('',*,*,#154,.F.);
#455=ORIENTED_EDGE('',*,*,#82,.T.);
#456=ORIENTED_EDGE('',*,*,#94,.F.);
#457=ORIENTED_EDGE('',*,*,#122,.F.);
#458=CARTESIAN_POINT('',(7.13590613961699E-015,2.8421709430404E-014,4.40000000000002));
#459=DIRECTION('',(-0.0,-0.0,-1.0));
#460=DIRECTION('',(2.04257670453543E-013,-1.0,0.0));
#461=DIRECTION('',(-5.28340800769414E-014,0.258819045102532,-0.965925826289065));
#462=CARTESIAN_POINT('',(7.13590613961699E-015,2.8421709430404E-014,0.0));
#463=DIRECTION('',(0.0,0.0,1.0));
#464=DIRECTION('',(2.04257670453543E-013,-1.0,0.0));
#465=DIRECTION('',(5.28340800769409E-014,-0.258819045102529,0.965925826289066));
#466=CARTESIAN_POINT('',(7.13590613961699E-015,2.8421709430404E-014,4.99999999999997));
#467=DIRECTION('',(0.0,0.0,1.0));
#468=DIRECTION('',(2.04257670453543E-013,-1.0,0.0));
#469=CARTESIAN_POINT('',(7.13590613961699E-015,2.8421709430404E-014,3.80000000000007));
#470=DIRECTION('',(0.0,0.0,1.0));
#471=DIRECTION('',(2.04257670453543E-013,-1.0,0.0));
#472=CARTESIAN_POINT('',(7.13590613961699E-015,2.8421709430404E-014,-6.0));
#473=DIRECTION('',(0.0,0.0,1.0));
#474=DIRECTION('',(2.04257670453543E-013,-1.0,0.0));
#475=CARTESIAN_POINT('',(7.13590613961699E-015,2.8421709430404E-014,0.0));
#476=DIRECTION('',(0.0,0.0,1.0));
#477=DIRECTION('',(2.04257670453543E-013,-1.0,0.0));
#478=DIRECTION('',(-0.0,-0.0,-1.0));
#479=CARTESIAN_POINT('',(7.13590613961699E-015,2.8421709430404E-014,0.0));
#480=DIRECTION('',(0.0,0.0,1.0));
#481=DIRECTION('',(2.04257670453543E-013,-1.0,0.0));
#482=SURFACE_STYLE_FILL_AREA(#540);
#483=ORIENTED_EDGE('',*,*,#104,.F.);
#484=ORIENTED_EDGE('',*,*,#148,.F.);
#485=CARTESIAN_POINT('',(6.97682510781009E-015,-0.866025403784406,-6.00000000000001));
#486=DIRECTION('',(0.0,0.0,-1.0));
#487=DIRECTION('',(1.83690953073357E-016,1.0,0.0));
#488=SURFACE_STYLE_FILL_AREA(#541);
#489=ORIENTED_EDGE('',*,*,#154,.T.);
#490=ORIENTED_EDGE('',*,*,#100,.F.);
#491=ORIENTED_EDGE('',*,*,#94,.T.);
#492=ORIENTED_EDGE('',*,*,#102,.T.);
#493=CARTESIAN_POINT('',(7.13590613961699E-015,2.8421709430404E-014,4.40000000000002));
#494=DIRECTION('',(-0.0,-0.0,-1.0));
#495=DIRECTION('',(2.04257670453543E-013,-1.0,0.0));
#496=CARTESIAN_POINT('',(7.13590613961699E-015,2.8421709430404E-014,4.99999999999997));
#497=DIRECTION('',(0.0,0.0,1.0));
#498=DIRECTION('',(2.04257670453543E-013,-1.0,0.0));
#499=DIRECTION('',(0.0,0.0,1.0));
#500=CARTESIAN_POINT('',(7.13590613961699E-015,2.8421709430404E-014,-5.0));
#501=DIRECTION('',(0.0,0.0,1.0));
#502=DIRECTION('',(2.04257670453543E-013,-1.0,0.0));
#503=SURFACE_STYLE_FILL_AREA(#542);
#504=ORIENTED_EDGE('',*,*,#98,.T.);
#505=ORIENTED_EDGE('',*,*,#146,.F.);
#506=ORIENTED_EDGE('',*,*,#134,.T.);
#507=ORIENTED_EDGE('',*,*,#148,.T.);
#508=CARTESIAN_POINT('',(7.13590613961699E-015,2.8421709430404E-014,-5.5));
#509=DIRECTION('',(-0.0,0.0,1.0));
#510=DIRECTION('',(2.04257670453543E-013,-1.0,0.0));
#511=DIRECTION('',(5.28340800769409E-014,-0.258819045102529,-0.965925826289066));
#512=SURFACE_STYLE_FILL_AREA(#543);
#513=SURFACE_STYLE_FILL_AREA(#544);
#514=ORIENTED_EDGE('',*,*,#80,.T.);
#515=ORIENTED_EDGE('',*,*,#76,.F.);
#516=ORIENTED_EDGE('',*,*,#112,.T.);
#517=ORIENTED_EDGE('',*,*,#146,.T.);
#518=CARTESIAN_POINT('',(7.13590613961699E-015,2.8421709430404E-014,-2.5));
#519=DIRECTION('',(-0.0,-0.0,-1.0));
#520=DIRECTION('',(2.04257670453543E-013,-1.0,0.0));
#521=CARTESIAN_POINT('',(7.13590613961699E-015,2.8421709430404E-014,-5.0));
#522=DIRECTION('',(0.0,0.0,1.0));
#523=DIRECTION('',(2.04257670453543E-013,-1.0,0.0));
#524=CARTESIAN_POINT('',(7.13590613961699E-015,2.8421709430404E-014,-6.0));
#525=DIRECTION('',(0.0,0.0,1.0));
#526=DIRECTION('',(2.04257670453543E-013,-1.0,0.0));
#527=SURFACE_STYLE_FILL_AREA(#545);
#528=ORIENTED_EDGE('',*,*,#122,.T.);
#529=ORIENTED_EDGE('',*,*,#100,.T.);
#530=CARTESIAN_POINT('',(7.56343511012901E-015,-1.3392304845413,4.99999999999997));
#531=DIRECTION('',(0.0,0.0,1.0));
#532=DIRECTION('',(-1.83690953073357E-016,-1.0,0.0));
#533=DIRECTION('',(-5.28340800769414E-014,0.258819045102532,0.965925826289065));
#534=FILL_AREA_STYLE('',(#546));
#535=FILL_AREA_STYLE('',(#547));
#536=FILL_AREA_STYLE('',(#548));
#537=FILL_AREA_STYLE('',(#549));
#538=FILL_AREA_STYLE('',(#550));
#539=FILL_AREA_STYLE('',(#551));
#540=FILL_AREA_STYLE('',(#552));
#541=FILL_AREA_STYLE('',(#553));
#542=FILL_AREA_STYLE('',(#554));
#543=FILL_AREA_STYLE('',(#555));
#544=FILL_AREA_STYLE('',(#556));
#545=FILL_AREA_STYLE('',(#557));
#546=FILL_AREA_STYLE_COLOUR('',#558);
#547=FILL_AREA_STYLE_COLOUR('',#559);
#548=FILL_AREA_STYLE_COLOUR('',#560);
#549=FILL_AREA_STYLE_COLOUR('',#561);
#550=FILL_AREA_STYLE_COLOUR('',#562);
#551=FILL_AREA_STYLE_COLOUR('',#563);
#552=FILL_AREA_STYLE_COLOUR('',#564);
#553=FILL_AREA_STYLE_COLOUR('',#565);
#554=FILL_AREA_STYLE_COLOUR('',#566);
#555=FILL_AREA_STYLE_COLOUR('',#567);
#556=FILL_AREA_STYLE_COLOUR('',#568);
#557=FILL_AREA_STYLE_COLOUR('',#569);
#558=COLOUR_RGB('',0.509803950786591,0.509803950786591,0.588235318660736);
#559=COLOUR_RGB('',0.509803950786591,0.509803950786591,0.588235318660736);
#560=COLOUR_RGB('',0.509803950786591,0.509803950786591,0.588235318660736);
#561=COLOUR_RGB('',0.509803950786591,0.509803950786591,0.588235318660736);
#562=COLOUR_RGB('',0.509803950786591,0.509803950786591,0.588235318660736);
#563=COLOUR_RGB('',0.509803950786591,0.509803950786591,0.588235318660736);
#564=COLOUR_RGB('',0.509803950786591,0.509803950786591,0.588235318660736);
#565=COLOUR_RGB('',0.509803950786591,0.509803950786591,0.588235318660736);
#566=COLOUR_RGB('',0.509803950786591,0.509803950786591,0.588235318660736);
#567=COLOUR_RGB('',0.509803950786591,0.509803950786591,0.588235318660736);
#568=COLOUR_RGB('',0.509803950786591,0.509803950786591,0.588235318660736);
#569=COLOUR_RGB('',0.509803950786591,0.509803950786591,0.588235318660736);
ENDSEC;
END-ISO-10303-21;
