ISO-10303-21;
HEADER;
FILE_DESCRIPTION(('STEP AP214'),'1');
FILE_NAME(' ','  ',('TraceParts'),('TraceParts S.A.'),'XStep 1.0',' ',' ');
FILE_SCHEMA(('automotive_design'));
ENDSEC;
DATA;
#1=MECHANICAL_DESIGN_GEOMETRIC_PRESENTATION_REPRESENTATION(' ',(#10,#11,#12,#13,#14,#15,#16,#17,#18,#19,#20,#21,#22,#23,#24,#25,#26,#27,#28,#29,#30,#31,#32,#33,#34,#35,#36,#37,#38,#39,#40,#41,#42,#43,#44,#45,#46,#47,#48,#49,#50,#51,#52),#6);
#2=PRODUCT_DEFINITION_CONTEXT('',#53,'design');
#3=APPLICATION_PROTOCOL_DEFINITION('INTERNATIONAL STANDARD','automotive_design',1994,#53);
#4=PRODUCT_CATEGORY_RELATIONSHIP('NONE','NONE',#54,#55);
#5=SHAPE_DEFINITION_REPRESENTATION(#56,#57);
#6= (GEOMETRIC_REPRESENTATION_CONTEXT(3)GLOBAL_UNCERTAINTY_ASSIGNED_CONTEXT((#60))GLOBAL_UNIT_ASSIGNED_CONTEXT((#62,#63,#64))REPRESENTATION_CONTEXT('NONE','WORKSPACE'));
#10=STYLED_ITEM('',(#66),#67);
#11=STYLED_ITEM('',(#68),#69);
#12=STYLED_ITEM('',(#70),#71);
#13=STYLED_ITEM('',(#72),#73);
#14=STYLED_ITEM('',(#74),#75);
#15=STYLED_ITEM('',(#76),#77);
#16=STYLED_ITEM('',(#78),#79);
#17=STYLED_ITEM('',(#80),#81);
#18=STYLED_ITEM('',(#82),#83);
#19=STYLED_ITEM('',(#84),#85);
#20=STYLED_ITEM('',(#86),#87);
#21=STYLED_ITEM('',(#88),#89);
#22=STYLED_ITEM('',(#90),#91);
#23=STYLED_ITEM('',(#92),#93);
#24=STYLED_ITEM('',(#94),#95);
#25=STYLED_ITEM('',(#96),#97);
#26=STYLED_ITEM('',(#98),#99);
#27=STYLED_ITEM('',(#100),#101);
#28=STYLED_ITEM('',(#102),#103);
#29=STYLED_ITEM('',(#104),#105);
#30=STYLED_ITEM('',(#106),#107);
#31=STYLED_ITEM('',(#108),#109);
#32=STYLED_ITEM('',(#110),#111);
#33=STYLED_ITEM('',(#112),#113);
#34=STYLED_ITEM('',(#114),#115);
#35=STYLED_ITEM('',(#116),#117);
#36=STYLED_ITEM('',(#118),#119);
#37=STYLED_ITEM('',(#120),#121);
#38=STYLED_ITEM('',(#122),#123);
#39=STYLED_ITEM('',(#124),#125);
#40=STYLED_ITEM('',(#126),#127);
#41=STYLED_ITEM('',(#128),#129);
#42=STYLED_ITEM('',(#130),#131);
#43=STYLED_ITEM('',(#132),#133);
#44=STYLED_ITEM('',(#134),#135);
#45=STYLED_ITEM('',(#136),#137);
#46=STYLED_ITEM('',(#138),#139);
#47=STYLED_ITEM('',(#140),#141);
#48=STYLED_ITEM('',(#142),#143);
#49=STYLED_ITEM('',(#144),#145);
#50=STYLED_ITEM('',(#146),#147);
#51=STYLED_ITEM('',(#148),#149);
#52=STYLED_ITEM('',(#150),#151);
#53=APPLICATION_CONTEXT(' ');
#54=PRODUCT_CATEGORY('part','NONE');
#55=PRODUCT_RELATED_PRODUCT_CATEGORY('detail',' ',(#152));
#56=PRODUCT_DEFINITION_SHAPE('NONE','NONE',#153);
#57=ADVANCED_BREP_SHAPE_REPRESENTATION('1',(#154,#155),#6);
#60=UNCERTAINTY_MEASURE_WITH_UNIT(LENGTH_MEASURE(1.0E-006),#62,'','');
#62= (CONVERSION_BASED_UNIT('MILLIMETRE',#158)LENGTH_UNIT()NAMED_UNIT(#161));
#63= (NAMED_UNIT(#163)PLANE_ANGLE_UNIT()SI_UNIT($,.RADIAN.));
#64= (NAMED_UNIT(#163)SOLID_ANGLE_UNIT()SI_UNIT($,.STERADIAN.));
#66=PRESENTATION_STYLE_ASSIGNMENT((#169));
#67=ADVANCED_FACE('',(#170),#171,.T.);
#68=PRESENTATION_STYLE_ASSIGNMENT((#172));
#69=EDGE_CURVE('',#117,#75,#173,.T.);
#70=PRESENTATION_STYLE_ASSIGNMENT((#174));
#71=EDGE_CURVE('',#77,#139,#175,.T.);
#72=PRESENTATION_STYLE_ASSIGNMENT((#176));
#73=ADVANCED_FACE('',(#177),#178,.T.);
#74=PRESENTATION_STYLE_ASSIGNMENT((#179));
#75=VERTEX_POINT('',#180);
#76=PRESENTATION_STYLE_ASSIGNMENT((#181));
#77=VERTEX_POINT('',#182);
#78=PRESENTATION_STYLE_ASSIGNMENT((#183));
#79=EDGE_CURVE('',#135,#107,#184,.T.);
#80=PRESENTATION_STYLE_ASSIGNMENT((#185));
#81=EDGE_CURVE('',#85,#117,#186,.T.);
#82=PRESENTATION_STYLE_ASSIGNMENT((#187));
#83=EDGE_CURVE('',#101,#107,#188,.T.);
#84=PRESENTATION_STYLE_ASSIGNMENT((#189));
#85=VERTEX_POINT('',#190);
#86=PRESENTATION_STYLE_ASSIGNMENT((#191));
#87=EDGE_CURVE('',#141,#135,#192,.T.);
#88=PRESENTATION_STYLE_ASSIGNMENT((#193));
#89=VERTEX_POINT('',#194);
#90=PRESENTATION_STYLE_ASSIGNMENT((#195));
#91=EDGE_CURVE('',#139,#85,#196,.T.);
#92=PRESENTATION_STYLE_ASSIGNMENT((#197));
#93=ADVANCED_FACE('',(#198),#199,.T.);
#94=PRESENTATION_STYLE_ASSIGNMENT((#200));
#95=ADVANCED_FACE('',(#201),#202,.T.);
#96=PRESENTATION_STYLE_ASSIGNMENT((#203));
#97=ADVANCED_FACE('',(#204),#205,.T.);
#98=PRESENTATION_STYLE_ASSIGNMENT((#206));
#99=ADVANCED_FACE('',(#207),#208,.T.);
#100=PRESENTATION_STYLE_ASSIGNMENT((#209));
#101=VERTEX_POINT('',#210);
#102=PRESENTATION_STYLE_ASSIGNMENT((#211));
#103=EDGE_CURVE('',#121,#131,#212,.T.);
#104=PRESENTATION_STYLE_ASSIGNMENT((#213));
#105=EDGE_CURVE('',#139,#77,#214,.T.);
#106=PRESENTATION_STYLE_ASSIGNMENT((#215));
#107=VERTEX_POINT('',#216);
#108=PRESENTATION_STYLE_ASSIGNMENT((#217));
#109=EDGE_CURVE('',#131,#121,#218,.T.);
#110=PRESENTATION_STYLE_ASSIGNMENT((#219));
#111=EDGE_CURVE('',#141,#121,#220,.T.);
#112=PRESENTATION_STYLE_ASSIGNMENT((#221));
#113=EDGE_CURVE('',#75,#89,#222,.T.);
#114=PRESENTATION_STYLE_ASSIGNMENT((#223));
#115=ADVANCED_FACE('',(#224,#225),#226,.T.);
#116=PRESENTATION_STYLE_ASSIGNMENT((#227));
#117=VERTEX_POINT('',#228);
#118=PRESENTATION_STYLE_ASSIGNMENT((#229));
#119=EDGE_CURVE('',#135,#141,#230,.T.);
#120=PRESENTATION_STYLE_ASSIGNMENT((#231));
#121=VERTEX_POINT('',#232);
#122=PRESENTATION_STYLE_ASSIGNMENT((#233));
#123=ADVANCED_FACE('',(#234),#235,.T.);
#124=PRESENTATION_STYLE_ASSIGNMENT((#236));
#125=EDGE_CURVE('',#89,#85,#237,.T.);
#126=PRESENTATION_STYLE_ASSIGNMENT((#238));
#127=EDGE_CURVE('',#89,#77,#239,.T.);
#128=PRESENTATION_STYLE_ASSIGNMENT((#240));
#129=EDGE_CURVE('',#131,#135,#241,.T.);
#130=PRESENTATION_STYLE_ASSIGNMENT((#242));
#131=VERTEX_POINT('',#243);
#132=PRESENTATION_STYLE_ASSIGNMENT((#244));
#133=EDGE_CURVE('',#107,#101,#245,.T.);
#134=PRESENTATION_STYLE_ASSIGNMENT((#246));
#135=VERTEX_POINT('',#247);
#136=PRESENTATION_STYLE_ASSIGNMENT((#248));
#137=EDGE_CURVE('',#75,#117,#249,.T.);
#138=PRESENTATION_STYLE_ASSIGNMENT((#250));
#139=VERTEX_POINT('',#251);
#140=PRESENTATION_STYLE_ASSIGNMENT((#252));
#141=VERTEX_POINT('',#253);
#142=PRESENTATION_STYLE_ASSIGNMENT((#254));
#143=ADVANCED_FACE('',(#255),#256,.T.);
#144=PRESENTATION_STYLE_ASSIGNMENT((#257));
#145=ADVANCED_FACE('',(#258),#259,.T.);
#146=PRESENTATION_STYLE_ASSIGNMENT((#260));
#147=EDGE_CURVE('',#85,#89,#261,.T.);
#148=PRESENTATION_STYLE_ASSIGNMENT((#262));
#149=EDGE_CURVE('',#101,#141,#263,.T.);
#150=PRESENTATION_STYLE_ASSIGNMENT((#264));
#151=ADVANCED_FACE('',(#265),#266,.T.);
#152=PRODUCT('1','1','PART-1-DESC',(#267));
#153=PRODUCT_DEFINITION('NONE','NONE',#268,#2);
#154=MANIFOLD_SOLID_BREP('1',#269);
#155=AXIS2_PLACEMENT_3D('',#270,#271,#272);
#158=LENGTH_MEASURE_WITH_UNIT(LENGTH_MEASURE(1.0),#273);
#161=DIMENSIONAL_EXPONENTS(1.0,0.0,0.0,0.0,0.0,0.0,0.0);
#163=DIMENSIONAL_EXPONENTS(0.0,0.0,0.0,0.0,0.0,0.0,0.0);
#169=SURFACE_STYLE_USAGE(.BOTH.,#274);
#170=FACE_OUTER_BOUND('',#275,.T.);
#171=CYLINDRICAL_SURFACE('',#276,6.0);
#172=CURVE_STYLE('',#277,POSITIVE_LENGTH_MEASURE(1.0E-006),#278);
#173=CIRCLE('',#279,5.4);
#174=CURVE_STYLE('',#280,POSITIVE_LENGTH_MEASURE(1.0E-006),#281);
#175=CIRCLE('',#282,6.0);
#176=SURFACE_STYLE_USAGE(.BOTH.,#283);
#177=FACE_OUTER_BOUND('',#284,.T.);
#178=CYLINDRICAL_SURFACE('',#285,12.5);
#179=POINT_STYLE(' ',#286,POSITIVE_LENGTH_MEASURE(1.0E-006),#287);
#180=CARTESIAN_POINT('',(-5.4,-1.51851187873975E-015,-14.0));
#181=POINT_STYLE(' ',#288,POSITIVE_LENGTH_MEASURE(1.0E-006),#289);
#182=CARTESIAN_POINT('',(-6.0,-7.34763812293426E-016,4.49898216546641E-032));
#183=CURVE_STYLE('',#290,POSITIVE_LENGTH_MEASURE(1.0E-006),#291);
#184=LINE('',#292,#293);
#185=CURVE_STYLE('',#294,POSITIVE_LENGTH_MEASURE(1.0E-006),#295);
#186=LINE('',#296,#297);
#187=CURVE_STYLE('',#298,POSITIVE_LENGTH_MEASURE(1.0E-006),#299);
#188=CIRCLE('',#300,12.5);
#189=POINT_STYLE(' ',#301,POSITIVE_LENGTH_MEASURE(1.0E-006),#302);
#190=CARTESIAN_POINT('',(6.0,-6.73533494602307E-016,-11.0));
#191=CURVE_STYLE('',#303,POSITIVE_LENGTH_MEASURE(1.0E-006),#304);
#192=CIRCLE('',#305,12.5);
#193=POINT_STYLE(' ',#306,POSITIVE_LENGTH_MEASURE(1.0E-006),#307);
#194=CARTESIAN_POINT('',(-6.0,-1.40829730689573E-015,-11.0));
#195=CURVE_STYLE('',#308,POSITIVE_LENGTH_MEASURE(1.0E-006),#309);
#196=LINE('',#310,#311);
#197=SURFACE_STYLE_USAGE(.BOTH.,#312);
#198=FACE_OUTER_BOUND('',#313,.T.);
#199=CONICAL_SURFACE('',#314,5.7,0.197395559849881);
#200=SURFACE_STYLE_USAGE(.BOTH.,#315);
#201=FACE_OUTER_BOUND('',#316,.T.);
#202=PLANE('',#317);
#203=SURFACE_STYLE_USAGE(.BOTH.,#318);
#204=FACE_OUTER_BOUND('',#319,.T.);
#205=CONICAL_SURFACE('',#320,11.5,0.785398163397448);
#206=SURFACE_STYLE_USAGE(.BOTH.,#321);
#207=FACE_OUTER_BOUND('',#322,.T.);
#208=CONICAL_SURFACE('',#323,11.5,0.785398163397448);
#209=POINT_STYLE(' ',#324,POSITIVE_LENGTH_MEASURE(1.0E-006),#325);
#210=CARTESIAN_POINT('',(-12.5,-1.53075794227797E-015,9.37287951138836E-032));
#211=CURVE_STYLE('',#326,POSITIVE_LENGTH_MEASURE(1.0E-006),#327);
#212=CIRCLE('',#328,10.5);
#213=CURVE_STYLE('',#329,POSITIVE_LENGTH_MEASURE(1.0E-006),#330);
#214=CIRCLE('',#331,6.0);
#215=POINT_STYLE(' ',#332,POSITIVE_LENGTH_MEASURE(1.0E-006),#333);
#216=CARTESIAN_POINT('',(12.5,0.0,0.0));
#217=CURVE_STYLE('',#334,POSITIVE_LENGTH_MEASURE(1.0E-006),#335);
#218=CIRCLE('',#336,10.5);
#219=CURVE_STYLE('',#337,POSITIVE_LENGTH_MEASURE(1.0E-006),#338);
#220=LINE('',#339,#340);
#221=CURVE_STYLE('',#341,POSITIVE_LENGTH_MEASURE(1.0E-006),#342);
#222=LINE('',#343,#344);
#223=SURFACE_STYLE_USAGE(.BOTH.,#345);
#224=FACE_BOUND('',#346,.T.);
#225=FACE_OUTER_BOUND('',#347,.T.);
#226=PLANE('',#348);
#227=POINT_STYLE(' ',#349,POSITIVE_LENGTH_MEASURE(1.0E-006),#350);
#228=CARTESIAN_POINT('',(5.4,-8.57224447675664E-016,-14.0));
#229=CURVE_STYLE('',#351,POSITIVE_LENGTH_MEASURE(1.0E-006),#352);
#230=CIRCLE('',#353,12.5);
#231=POINT_STYLE(' ',#354,POSITIVE_LENGTH_MEASURE(1.0E-006),#355);
#232=CARTESIAN_POINT('',(-10.5,-6.12303176911189E-017,20.0));
#233=SURFACE_STYLE_USAGE(.BOTH.,#356);
#234=FACE_OUTER_BOUND('',#357,.T.);
#235=PLANE('',#358);
#236=CURVE_STYLE('',#359,POSITIVE_LENGTH_MEASURE(1.0E-006),#360);
#237=CIRCLE('',#361,6.0);
#238=CURVE_STYLE('',#362,POSITIVE_LENGTH_MEASURE(1.0E-006),#363);
#239=LINE('',#364,#365);
#240=CURVE_STYLE('',#366,POSITIVE_LENGTH_MEASURE(1.0E-006),#367);
#241=LINE('',#368,#369);
#242=POINT_STYLE(' ',#370,POSITIVE_LENGTH_MEASURE(1.0E-006),#371);
#243=CARTESIAN_POINT('',(10.5,1.22460635382238E-015,20.0));
#244=CURVE_STYLE('',#372,POSITIVE_LENGTH_MEASURE(1.0E-006),#373);
#245=CIRCLE('',#374,12.5);
#246=POINT_STYLE(' ',#375,POSITIVE_LENGTH_MEASURE(1.0E-006),#376);
#247=CARTESIAN_POINT('',(12.5,1.10214571844014E-015,18.0));
#248=CURVE_STYLE('',#377,POSITIVE_LENGTH_MEASURE(1.0E-006),#378);
#249=CIRCLE('',#379,5.4);
#250=POINT_STYLE(' ',#380,POSITIVE_LENGTH_MEASURE(1.0E-006),#381);
#251=CARTESIAN_POINT('',(6.0,0.0,0.0));
#252=POINT_STYLE(' ',#382,POSITIVE_LENGTH_MEASURE(1.0E-006),#383);
#253=CARTESIAN_POINT('',(-12.5,-4.28612223837832E-016,18.0));
#254=SURFACE_STYLE_USAGE(.BOTH.,#384);
#255=FACE_OUTER_BOUND('',#385,.T.);
#256=CYLINDRICAL_SURFACE('',#386,12.5);
#257=SURFACE_STYLE_USAGE(.BOTH.,#387);
#258=FACE_OUTER_BOUND('',#388,.T.);
#259=CONICAL_SURFACE('',#389,5.7,0.197395559849881);
#260=CURVE_STYLE('',#390,POSITIVE_LENGTH_MEASURE(1.0E-006),#391);
#261=CIRCLE('',#392,6.0);
#262=CURVE_STYLE('',#393,POSITIVE_LENGTH_MEASURE(1.0E-006),#394);
#263=LINE('',#395,#396);
#264=SURFACE_STYLE_USAGE(.BOTH.,#397);
#265=FACE_OUTER_BOUND('',#398,.T.);
#266=CYLINDRICAL_SURFACE('',#399,6.0);
#267=PRODUCT_CONTEXT('',#53,'mechanical');
#268=PRODUCT_DEFINITION_FORMATION_WITH_SPECIFIED_SOURCE(' ','NONE',#152,.NOT_KNOWN.);
#269=CLOSED_SHELL('',(#93,#151,#73,#99,#123,#97,#143,#115,#67,#145,#95));
#270=CARTESIAN_POINT('',(0.0,0.0,0.0));
#271=DIRECTION('',(0.0,0.0,1.0));
#272=DIRECTION('',(1.0,0.0,0.0));
#273= (NAMED_UNIT(#161)LENGTH_UNIT()SI_UNIT(.MILLI.,.METRE.));
#274=SURFACE_SIDE_STYLE('',(#401));
#275=EDGE_LOOP('',(#402,#403,#404,#405));
#276=AXIS2_PLACEMENT_3D('',#406,#407,#408);
#277=DRAUGHTING_PRE_DEFINED_CURVE_FONT('continuous');
#278=COLOUR_RGB('',0.509803950786591,0.509803950786591,0.588235318660736);
#279=AXIS2_PLACEMENT_3D('',#409,#410,#411);
#280=DRAUGHTING_PRE_DEFINED_CURVE_FONT('continuous');
#281=COLOUR_RGB('',0.509803950786591,0.509803950786591,0.588235318660736);
#282=AXIS2_PLACEMENT_3D('',#412,#413,#414);
#283=SURFACE_SIDE_STYLE('',(#415));
#284=EDGE_LOOP('',(#416,#417,#418,#419));
#285=AXIS2_PLACEMENT_3D('',#420,#421,#422);
#286=PRE_DEFINED_MARKER('');
#287=COLOUR_RGB('',0.509803950786591,0.509803950786591,0.588235318660736);
#288=PRE_DEFINED_MARKER('');
#289=COLOUR_RGB('',0.509803950786591,0.509803950786591,0.588235318660736);
#290=DRAUGHTING_PRE_DEFINED_CURVE_FONT('continuous');
#291=COLOUR_RGB('',0.509803950786591,0.509803950786591,0.588235318660736);
#292=CARTESIAN_POINT('',(12.5,2.08183080149804E-015,9.0));
#293=VECTOR('',#423,1.0);
#294=DRAUGHTING_PRE_DEFINED_CURVE_FONT('continuous');
#295=COLOUR_RGB('',0.509803950786591,0.509803950786591,0.588235318660736);
#296=CARTESIAN_POINT('',(5.7,-6.73533494602306E-017,-12.5));
#297=VECTOR('',#424,1.0);
#298=DRAUGHTING_PRE_DEFINED_CURVE_FONT('continuous');
#299=COLOUR_RGB('',0.509803950786591,0.509803950786591,0.588235318660736);
#300=AXIS2_PLACEMENT_3D('',#425,#426,#427);
#301=PRE_DEFINED_MARKER('');
#302=COLOUR_RGB('',0.509803950786591,0.509803950786591,0.588235318660736);
#303=DRAUGHTING_PRE_DEFINED_CURVE_FONT('continuous');
#304=COLOUR_RGB('',0.509803950786591,0.509803950786591,0.588235318660736);
#305=AXIS2_PLACEMENT_3D('',#428,#429,#430);
#306=PRE_DEFINED_MARKER('');
#307=COLOUR_RGB('',0.509803950786591,0.509803950786591,0.588235318660736);
#308=DRAUGHTING_PRE_DEFINED_CURVE_FONT('continuous');
#309=COLOUR_RGB('',0.509803950786591,0.509803950786591,0.588235318660736);
#310=CARTESIAN_POINT('',(6.0,3.97997064992273E-016,-5.5));
#311=VECTOR('',#431,1.0);
#312=SURFACE_SIDE_STYLE('',(#432));
#313=EDGE_LOOP('',(#433,#434,#435,#436));
#314=AXIS2_PLACEMENT_3D('',#437,#438,#439);
#315=SURFACE_SIDE_STYLE('',(#440));
#316=EDGE_LOOP('',(#441,#442));
#317=AXIS2_PLACEMENT_3D('',#443,#444,#445);
#318=SURFACE_SIDE_STYLE('',(#446));
#319=EDGE_LOOP('',(#447,#448,#449,#450));
#320=AXIS2_PLACEMENT_3D('',#451,#452,#453);
#321=SURFACE_SIDE_STYLE('',(#454));
#322=EDGE_LOOP('',(#455,#456,#457,#458));
#323=AXIS2_PLACEMENT_3D('',#459,#460,#461);
#324=PRE_DEFINED_MARKER('');
#325=COLOUR_RGB('',0.509803950786591,0.509803950786591,0.588235318660736);
#326=DRAUGHTING_PRE_DEFINED_CURVE_FONT('continuous');
#327=COLOUR_RGB('',0.509803950786591,0.509803950786591,0.588235318660736);
#328=AXIS2_PLACEMENT_3D('',#462,#463,#464);
#329=DRAUGHTING_PRE_DEFINED_CURVE_FONT('continuous');
#330=COLOUR_RGB('',0.509803950786591,0.509803950786591,0.588235318660736);
#331=AXIS2_PLACEMENT_3D('',#465,#466,#467);
#332=PRE_DEFINED_MARKER('');
#333=COLOUR_RGB('',0.509803950786591,0.509803950786591,0.588235318660736);
#334=DRAUGHTING_PRE_DEFINED_CURVE_FONT('continuous');
#335=COLOUR_RGB('',0.509803950786591,0.509803950786591,0.588235318660736);
#336=AXIS2_PLACEMENT_3D('',#468,#469,#470);
#337=DRAUGHTING_PRE_DEFINED_CURVE_FONT('continuous');
#338=COLOUR_RGB('',0.509803950786591,0.509803950786591,0.588235318660736);
#339=CARTESIAN_POINT('',(-11.5,-2.44921270764475E-016,19.0));
#340=VECTOR('',#471,1.0);
#341=DRAUGHTING_PRE_DEFINED_CURVE_FONT('continuous');
#342=COLOUR_RGB('',0.509803950786591,0.509803950786591,0.588235318660736);
#343=CARTESIAN_POINT('',(-5.7,-1.46340459281774E-015,-12.5));
#344=VECTOR('',#472,1.0);
#345=SURFACE_SIDE_STYLE('',(#473));
#346=EDGE_LOOP('',(#474,#475));
#347=EDGE_LOOP('',(#476,#477));
#348=AXIS2_PLACEMENT_3D('',#478,#479,#480);
#349=PRE_DEFINED_MARKER('');
#350=COLOUR_RGB('',0.509803950786591,0.509803950786591,0.588235318660736);
#351=DRAUGHTING_PRE_DEFINED_CURVE_FONT('continuous');
#352=COLOUR_RGB('',0.509803950786591,0.509803950786591,0.588235318660736);
#353=AXIS2_PLACEMENT_3D('',#481,#482,#483);
#354=PRE_DEFINED_MARKER('');
#355=COLOUR_RGB('',0.509803950786591,0.509803950786591,0.588235318660736);
#356=SURFACE_SIDE_STYLE('',(#484));
#357=EDGE_LOOP('',(#485,#486));
#358=AXIS2_PLACEMENT_3D('',#487,#488,#489);
#359=DRAUGHTING_PRE_DEFINED_CURVE_FONT('continuous');
#360=COLOUR_RGB('',0.509803950786591,0.509803950786591,0.588235318660736);
#361=AXIS2_PLACEMENT_3D('',#490,#491,#492);
#362=DRAUGHTING_PRE_DEFINED_CURVE_FONT('continuous');
#363=COLOUR_RGB('',0.509803950786591,0.509803950786591,0.588235318660736);
#364=CARTESIAN_POINT('',(-6.0,-1.07153055959458E-015,-5.5));
#365=VECTOR('',#493,1.0);
#366=DRAUGHTING_PRE_DEFINED_CURVE_FONT('continuous');
#367=COLOUR_RGB('',0.509803950786591,0.509803950786591,0.588235318660736);
#368=CARTESIAN_POINT('',(11.5,2.57167334302699E-015,19.0));
#369=VECTOR('',#494,1.0);
#370=PRE_DEFINED_MARKER('');
#371=COLOUR_RGB('',0.509803950786591,0.509803950786591,0.588235318660736);
#372=DRAUGHTING_PRE_DEFINED_CURVE_FONT('continuous');
#373=COLOUR_RGB('',0.509803950786591,0.509803950786591,0.588235318660736);
#374=AXIS2_PLACEMENT_3D('',#495,#496,#497);
#375=PRE_DEFINED_MARKER('');
#376=COLOUR_RGB('',0.509803950786591,0.509803950786591,0.588235318660736);
#377=DRAUGHTING_PRE_DEFINED_CURVE_FONT('continuous');
#378=COLOUR_RGB('',0.509803950786591,0.509803950786591,0.588235318660736);
#379=AXIS2_PLACEMENT_3D('',#498,#499,#500);
#380=PRE_DEFINED_MARKER('');
#381=COLOUR_RGB('',0.509803950786591,0.509803950786591,0.588235318660736);
#382=PRE_DEFINED_MARKER('');
#383=COLOUR_RGB('',0.509803950786591,0.509803950786591,0.588235318660736);
#384=SURFACE_SIDE_STYLE('',(#501));
#385=EDGE_LOOP('',(#502,#503,#504,#505));
#386=AXIS2_PLACEMENT_3D('',#506,#507,#508);
#387=SURFACE_SIDE_STYLE('',(#509));
#388=EDGE_LOOP('',(#510,#511,#512,#513));
#389=AXIS2_PLACEMENT_3D('',#514,#515,#516);
#390=DRAUGHTING_PRE_DEFINED_CURVE_FONT('continuous');
#391=COLOUR_RGB('',0.509803950786591,0.509803950786591,0.588235318660736);
#392=AXIS2_PLACEMENT_3D('',#517,#518,#519);
#393=DRAUGHTING_PRE_DEFINED_CURVE_FONT('continuous');
#394=COLOUR_RGB('',0.509803950786591,0.509803950786591,0.588235318660736);
#395=CARTESIAN_POINT('',(-12.5,-9.79685083057902E-016,9.0));
#396=VECTOR('',#520,1.0);
#397=SURFACE_SIDE_STYLE('',(#521));
#398=EDGE_LOOP('',(#522,#523,#524,#525));
#399=AXIS2_PLACEMENT_3D('',#526,#527,#528);
#401=SURFACE_STYLE_FILL_AREA(#529);
#402=ORIENTED_EDGE('',*,*,#91,.T.);
#403=ORIENTED_EDGE('',*,*,#125,.F.);
#404=ORIENTED_EDGE('',*,*,#127,.T.);
#405=ORIENTED_EDGE('',*,*,#71,.T.);
#406=CARTESIAN_POINT('',(0.0,-3.36766747301154E-016,-5.5));
#407=DIRECTION('',(-0.0,6.12303176911189E-017,1.0));
#408=DIRECTION('',(1.0,0.0,0.0));
#409=CARTESIAN_POINT('',(0.0,-8.57224447675664E-016,-14.0));
#410=DIRECTION('',(0.0,-6.12303176911189E-017,-1.0));
#411=DIRECTION('',(1.0,0.0,0.0));
#412=CARTESIAN_POINT('',(0.0,0.0,0.0));
#413=DIRECTION('',(0.0,-6.12303176911189E-017,-1.0));
#414=DIRECTION('',(1.0,0.0,0.0));
#415=SURFACE_STYLE_FILL_AREA(#530);
#416=ORIENTED_EDGE('',*,*,#79,.F.);
#417=ORIENTED_EDGE('',*,*,#119,.T.);
#418=ORIENTED_EDGE('',*,*,#149,.F.);
#419=ORIENTED_EDGE('',*,*,#133,.F.);
#420=CARTESIAN_POINT('',(0.0,5.5107285922007E-016,9.0));
#421=DIRECTION('',(-0.0,6.12303176911189E-017,1.0));
#422=DIRECTION('',(1.0,0.0,0.0));
#423=DIRECTION('',(0.0,-6.12303176911189E-017,-1.0));
#424=DIRECTION('',(-0.196116135138184,-8.40577728120578E-017,-0.98058067569092));
#425=CARTESIAN_POINT('',(0.0,0.0,0.0));
#426=DIRECTION('',(0.0,-6.12303176911189E-017,-1.0));
#427=DIRECTION('',(1.0,0.0,0.0));
#428=CARTESIAN_POINT('',(0.0,1.10214571844014E-015,18.0));
#429=DIRECTION('',(0.0,-6.12303176911189E-017,-1.0));
#430=DIRECTION('',(1.0,0.0,0.0));
#431=DIRECTION('',(0.0,-6.12303176911189E-017,-1.0));
#432=SURFACE_STYLE_FILL_AREA(#531);
#433=ORIENTED_EDGE('',*,*,#81,.F.);
#434=ORIENTED_EDGE('',*,*,#147,.T.);
#435=ORIENTED_EDGE('',*,*,#113,.F.);
#436=ORIENTED_EDGE('',*,*,#69,.F.);
#437=CARTESIAN_POINT('',(0.0,-7.65378971138986E-016,-12.5));
#438=DIRECTION('',(-0.0,6.12303176911189E-017,1.0));
#439=DIRECTION('',(1.0,0.0,0.0));
#440=SURFACE_STYLE_FILL_AREA(#532);
#441=ORIENTED_EDGE('',*,*,#69,.T.);
#442=ORIENTED_EDGE('',*,*,#137,.T.);
#443=CARTESIAN_POINT('',(2.7,-8.57224447675664E-016,-14.0));
#444=DIRECTION('',(0.0,-6.12303176911189E-017,-1.0));
#445=DIRECTION('',(1.0,0.0,0.0));
#446=SURFACE_STYLE_FILL_AREA(#533);
#447=ORIENTED_EDGE('',*,*,#129,.T.);
#448=ORIENTED_EDGE('',*,*,#87,.F.);
#449=ORIENTED_EDGE('',*,*,#111,.T.);
#450=ORIENTED_EDGE('',*,*,#103,.T.);
#451=CARTESIAN_POINT('',(0.0,1.16337603613126E-015,19.0));
#452=DIRECTION('',(0.0,-6.12303176911189E-017,-1.0));
#453=DIRECTION('',(1.0,0.0,0.0));
#454=SURFACE_STYLE_FILL_AREA(#534);
#455=ORIENTED_EDGE('',*,*,#129,.F.);
#456=ORIENTED_EDGE('',*,*,#109,.T.);
#457=ORIENTED_EDGE('',*,*,#111,.F.);
#458=ORIENTED_EDGE('',*,*,#119,.F.);
#459=CARTESIAN_POINT('',(0.0,1.16337603613126E-015,19.0));
#460=DIRECTION('',(0.0,-6.12303176911189E-017,-1.0));
#461=DIRECTION('',(1.0,0.0,0.0));
#462=CARTESIAN_POINT('',(0.0,1.22460635382238E-015,20.0));
#463=DIRECTION('',(0.0,-6.12303176911189E-017,-1.0));
#464=DIRECTION('',(1.0,0.0,0.0));
#465=CARTESIAN_POINT('',(0.0,0.0,0.0));
#466=DIRECTION('',(0.0,-6.12303176911189E-017,-1.0));
#467=DIRECTION('',(1.0,0.0,0.0));
#468=CARTESIAN_POINT('',(0.0,1.22460635382238E-015,20.0));
#469=DIRECTION('',(0.0,-6.12303176911189E-017,-1.0));
#470=DIRECTION('',(1.0,0.0,0.0));
#471=DIRECTION('',(0.707106781186548,1.2988911856079E-016,0.707106781186548));
#472=DIRECTION('',(-0.196116135138184,3.60247597765962E-017,0.98058067569092));
#473=SURFACE_STYLE_FILL_AREA(#535);
#474=ORIENTED_EDGE('',*,*,#105,.F.);
#475=ORIENTED_EDGE('',*,*,#71,.F.);
#476=ORIENTED_EDGE('',*,*,#133,.T.);
#477=ORIENTED_EDGE('',*,*,#83,.T.);
#478=CARTESIAN_POINT('',(9.25,0.0,0.0));
#479=DIRECTION('',(0.0,-6.12303176911189E-017,-1.0));
#480=DIRECTION('',(1.0,0.0,0.0));
#481=CARTESIAN_POINT('',(0.0,1.10214571844014E-015,18.0));
#482=DIRECTION('',(0.0,-6.12303176911189E-017,-1.0));
#483=DIRECTION('',(1.0,0.0,0.0));
#484=SURFACE_STYLE_FILL_AREA(#536);
#485=ORIENTED_EDGE('',*,*,#109,.F.);
#486=ORIENTED_EDGE('',*,*,#103,.F.);
#487=CARTESIAN_POINT('',(5.25,1.22460635382238E-015,20.0));
#488=DIRECTION('',(0.0,6.12303176911189E-017,1.0));
#489=DIRECTION('',(-1.0,0.0,0.0));
#490=CARTESIAN_POINT('',(0.0,-6.73533494602307E-016,-11.0));
#491=DIRECTION('',(0.0,-6.12303176911189E-017,-1.0));
#492=DIRECTION('',(1.0,0.0,0.0));
#493=DIRECTION('',(-0.0,6.12303176911189E-017,1.0));
#494=DIRECTION('',(0.707106781186548,4.32963728535968E-017,-0.707106781186548));
#495=CARTESIAN_POINT('',(0.0,0.0,0.0));
#496=DIRECTION('',(0.0,-6.12303176911189E-017,-1.0));
#497=DIRECTION('',(1.0,0.0,0.0));
#498=CARTESIAN_POINT('',(0.0,-8.57224447675664E-016,-14.0));
#499=DIRECTION('',(0.0,-6.12303176911189E-017,-1.0));
#500=DIRECTION('',(1.0,0.0,0.0));
#501=SURFACE_STYLE_FILL_AREA(#537);
#502=ORIENTED_EDGE('',*,*,#79,.T.);
#503=ORIENTED_EDGE('',*,*,#83,.F.);
#504=ORIENTED_EDGE('',*,*,#149,.T.);
#505=ORIENTED_EDGE('',*,*,#87,.T.);
#506=CARTESIAN_POINT('',(0.0,5.5107285922007E-016,9.0));
#507=DIRECTION('',(-0.0,6.12303176911189E-017,1.0));
#508=DIRECTION('',(1.0,0.0,0.0));
#509=SURFACE_STYLE_FILL_AREA(#538);
#510=ORIENTED_EDGE('',*,*,#81,.T.);
#511=ORIENTED_EDGE('',*,*,#137,.F.);
#512=ORIENTED_EDGE('',*,*,#113,.T.);
#513=ORIENTED_EDGE('',*,*,#125,.T.);
#514=CARTESIAN_POINT('',(0.0,-7.65378971138986E-016,-12.5));
#515=DIRECTION('',(-0.0,6.12303176911189E-017,1.0));
#516=DIRECTION('',(1.0,0.0,0.0));
#517=CARTESIAN_POINT('',(0.0,-6.73533494602307E-016,-11.0));
#518=DIRECTION('',(0.0,-6.12303176911189E-017,-1.0));
#519=DIRECTION('',(1.0,0.0,0.0));
#520=DIRECTION('',(-0.0,6.12303176911189E-017,1.0));
#521=SURFACE_STYLE_FILL_AREA(#539);
#522=ORIENTED_EDGE('',*,*,#91,.F.);
#523=ORIENTED_EDGE('',*,*,#105,.T.);
#524=ORIENTED_EDGE('',*,*,#127,.F.);
#525=ORIENTED_EDGE('',*,*,#147,.F.);
#526=CARTESIAN_POINT('',(0.0,-3.36766747301154E-016,-5.5));
#527=DIRECTION('',(-0.0,6.12303176911189E-017,1.0));
#528=DIRECTION('',(1.0,0.0,0.0));
#529=FILL_AREA_STYLE('',(#540));
#530=FILL_AREA_STYLE('',(#541));
#531=FILL_AREA_STYLE('',(#542));
#532=FILL_AREA_STYLE('',(#543));
#533=FILL_AREA_STYLE('',(#544));
#534=FILL_AREA_STYLE('',(#545));
#535=FILL_AREA_STYLE('',(#546));
#536=FILL_AREA_STYLE('',(#547));
#537=FILL_AREA_STYLE('',(#548));
#538=FILL_AREA_STYLE('',(#549));
#539=FILL_AREA_STYLE('',(#550));
#540=FILL_AREA_STYLE_COLOUR('',#551);
#541=FILL_AREA_STYLE_COLOUR('',#552);
#542=FILL_AREA_STYLE_COLOUR('',#553);
#543=FILL_AREA_STYLE_COLOUR('',#554);
#544=FILL_AREA_STYLE_COLOUR('',#555);
#545=FILL_AREA_STYLE_COLOUR('',#556);
#546=FILL_AREA_STYLE_COLOUR('',#557);
#547=FILL_AREA_STYLE_COLOUR('',#558);
#548=FILL_AREA_STYLE_COLOUR('',#559);
#549=FILL_AREA_STYLE_COLOUR('',#560);
#550=FILL_AREA_STYLE_COLOUR('',#561);
#551=COLOUR_RGB('',0.509803950786591,0.509803950786591,0.588235318660736);
#552=COLOUR_RGB('',0.509803950786591,0.509803950786591,0.588235318660736);
#553=COLOUR_RGB('',0.509803950786591,0.509803950786591,0.588235318660736);
#554=COLOUR_RGB('',0.509803950786591,0.509803950786591,0.588235318660736);
#555=COLOUR_RGB('',0.509803950786591,0.509803950786591,0.588235318660736);
#556=COLOUR_RGB('',0.509803950786591,0.509803950786591,0.588235318660736);
#557=COLOUR_RGB('',0.509803950786591,0.509803950786591,0.588235318660736);
#558=COLOUR_RGB('',0.509803950786591,0.509803950786591,0.588235318660736);
#559=COLOUR_RGB('',0.509803950786591,0.509803950786591,0.588235318660736);
#560=COLOUR_RGB('',0.509803950786591,0.509803950786591,0.588235318660736);
#561=COLOUR_RGB('',0.509803950786591,0.509803950786591,0.588235318660736);
ENDSEC;
END-ISO-10303-21;
