ISO-10303-21;
HEADER;
FILE_DESCRIPTION(('STEP AP214'),'1');
FILE_NAME(' ','  ',('TraceParts'),('TraceParts S.A.'),'XStep 1.0',' ',' ');
FILE_SCHEMA(('automotive_design'));
ENDSEC;
DATA;
#1=MECHANICAL_DESIGN_GEOMETRIC_PRESENTATION_REPRESENTATION(' ',(#10,#11,#12,#13,#14,#15,#16,#17,#18,#19,#20,#21,#22,#23,#24,#25,#26,#27,#28,#29,#30,#31,#32,#33,#34,#35,#36,#37,#38,#39,#40,#41,#42,#43,#44,#45,#46,#47,#48,#49,#50,#51,#52),#6);
#2=PRODUCT_DEFINITION_CONTEXT('',#53,'design');
#3=APPLICATION_PROTOCOL_DEFINITION('INTERNATIONAL STANDARD','automotive_design',1994,#53);
#4=PRODUCT_CATEGORY_RELATIONSHIP('NONE','NONE',#54,#55);
#5=SHAPE_DEFINITION_REPRESENTATION(#56,#57);
#6= (GEOMETRIC_REPRESENTATION_CONTEXT(3)GLOBAL_UNCERTAINTY_ASSIGNED_CONTEXT((#60))GLOBAL_UNIT_ASSIGNED_CONTEXT((#62,#63,#64))REPRESENTATION_CONTEXT('NONE','WORKSPACE'));
#10=STYLED_ITEM('',(#66),#67);
#11=STYLED_ITEM('',(#68),#69);
#12=STYLED_ITEM('',(#70),#71);
#13=STYLED_ITEM('',(#72),#73);
#14=STYLED_ITEM('',(#74),#75);
#15=STYLED_ITEM('',(#76),#77);
#16=STYLED_ITEM('',(#78),#79);
#17=STYLED_ITEM('',(#80),#81);
#18=STYLED_ITEM('',(#82),#83);
#19=STYLED_ITEM('',(#84),#85);
#20=STYLED_ITEM('',(#86),#87);
#21=STYLED_ITEM('',(#88),#89);
#22=STYLED_ITEM('',(#90),#91);
#23=STYLED_ITEM('',(#92),#93);
#24=STYLED_ITEM('',(#94),#95);
#25=STYLED_ITEM('',(#96),#97);
#26=STYLED_ITEM('',(#98),#99);
#27=STYLED_ITEM('',(#100),#101);
#28=STYLED_ITEM('',(#102),#103);
#29=STYLED_ITEM('',(#104),#105);
#30=STYLED_ITEM('',(#106),#107);
#31=STYLED_ITEM('',(#108),#109);
#32=STYLED_ITEM('',(#110),#111);
#33=STYLED_ITEM('',(#112),#113);
#34=STYLED_ITEM('',(#114),#115);
#35=STYLED_ITEM('',(#116),#117);
#36=STYLED_ITEM('',(#118),#119);
#37=STYLED_ITEM('',(#120),#121);
#38=STYLED_ITEM('',(#122),#123);
#39=STYLED_ITEM('',(#124),#125);
#40=STYLED_ITEM('',(#126),#127);
#41=STYLED_ITEM('',(#128),#129);
#42=STYLED_ITEM('',(#130),#131);
#43=STYLED_ITEM('',(#132),#133);
#44=STYLED_ITEM('',(#134),#135);
#45=STYLED_ITEM('',(#136),#137);
#46=STYLED_ITEM('',(#138),#139);
#47=STYLED_ITEM('',(#140),#141);
#48=STYLED_ITEM('',(#142),#143);
#49=STYLED_ITEM('',(#144),#145);
#50=STYLED_ITEM('',(#146),#147);
#51=STYLED_ITEM('',(#148),#149);
#52=STYLED_ITEM('',(#150),#151);
#53=APPLICATION_CONTEXT(' ');
#54=PRODUCT_CATEGORY('part','NONE');
#55=PRODUCT_RELATED_PRODUCT_CATEGORY('detail',' ',(#152));
#56=PRODUCT_DEFINITION_SHAPE('NONE','NONE',#153);
#57=ADVANCED_BREP_SHAPE_REPRESENTATION('1',(#154,#155),#6);
#60=UNCERTAINTY_MEASURE_WITH_UNIT(LENGTH_MEASURE(1.0E-006),#62,'','');
#62= (CONVERSION_BASED_UNIT('MILLIMETRE',#158)LENGTH_UNIT()NAMED_UNIT(#161));
#63= (NAMED_UNIT(#163)PLANE_ANGLE_UNIT()SI_UNIT($,.RADIAN.));
#64= (NAMED_UNIT(#163)SOLID_ANGLE_UNIT()SI_UNIT($,.STERADIAN.));
#66=PRESENTATION_STYLE_ASSIGNMENT((#169));
#67=EDGE_CURVE('',#113,#109,#170,.T.);
#68=PRESENTATION_STYLE_ASSIGNMENT((#171));
#69=VERTEX_POINT('',#172);
#70=PRESENTATION_STYLE_ASSIGNMENT((#173));
#71=ADVANCED_FACE('',(#174),#175,.T.);
#72=PRESENTATION_STYLE_ASSIGNMENT((#176));
#73=VERTEX_POINT('',#177);
#74=PRESENTATION_STYLE_ASSIGNMENT((#178));
#75=EDGE_CURVE('',#79,#99,#179,.T.);
#76=PRESENTATION_STYLE_ASSIGNMENT((#180));
#77=EDGE_CURVE('',#99,#113,#181,.T.);
#78=PRESENTATION_STYLE_ASSIGNMENT((#182));
#79=VERTEX_POINT('',#183);
#80=PRESENTATION_STYLE_ASSIGNMENT((#184));
#81=EDGE_CURVE('',#145,#73,#185,.T.);
#82=PRESENTATION_STYLE_ASSIGNMENT((#186));
#83=ADVANCED_FACE('',(#187,#188),#189,.T.);
#84=PRESENTATION_STYLE_ASSIGNMENT((#190));
#85=EDGE_CURVE('',#117,#115,#191,.T.);
#86=PRESENTATION_STYLE_ASSIGNMENT((#192));
#87=EDGE_CURVE('',#121,#123,#193,.T.);
#88=PRESENTATION_STYLE_ASSIGNMENT((#194));
#89=ADVANCED_FACE('',(#195),#196,.T.);
#90=PRESENTATION_STYLE_ASSIGNMENT((#197));
#91=EDGE_CURVE('',#113,#107,#198,.T.);
#92=PRESENTATION_STYLE_ASSIGNMENT((#199));
#93=EDGE_CURVE('',#117,#121,#200,.T.);
#94=PRESENTATION_STYLE_ASSIGNMENT((#201));
#95=EDGE_CURVE('',#107,#69,#202,.T.);
#96=PRESENTATION_STYLE_ASSIGNMENT((#203));
#97=EDGE_CURVE('',#123,#121,#204,.T.);
#98=PRESENTATION_STYLE_ASSIGNMENT((#205));
#99=VERTEX_POINT('',#206);
#100=PRESENTATION_STYLE_ASSIGNMENT((#207));
#101=ADVANCED_FACE('',(#208),#209,.T.);
#102=PRESENTATION_STYLE_ASSIGNMENT((#210));
#103=ADVANCED_FACE('',(#211),#212,.T.);
#104=PRESENTATION_STYLE_ASSIGNMENT((#213));
#105=ADVANCED_FACE('',(#214),#215,.T.);
#106=PRESENTATION_STYLE_ASSIGNMENT((#216));
#107=VERTEX_POINT('',#217);
#108=PRESENTATION_STYLE_ASSIGNMENT((#218));
#109=VERTEX_POINT('',#219);
#110=PRESENTATION_STYLE_ASSIGNMENT((#220));
#111=EDGE_CURVE('',#115,#73,#221,.T.);
#112=PRESENTATION_STYLE_ASSIGNMENT((#222));
#113=VERTEX_POINT('',#223);
#114=PRESENTATION_STYLE_ASSIGNMENT((#224));
#115=VERTEX_POINT('',#225);
#116=PRESENTATION_STYLE_ASSIGNMENT((#226));
#117=VERTEX_POINT('',#227);
#118=PRESENTATION_STYLE_ASSIGNMENT((#228));
#119=EDGE_CURVE('',#123,#115,#229,.T.);
#120=PRESENTATION_STYLE_ASSIGNMENT((#230));
#121=VERTEX_POINT('',#231);
#122=PRESENTATION_STYLE_ASSIGNMENT((#232));
#123=VERTEX_POINT('',#233);
#124=PRESENTATION_STYLE_ASSIGNMENT((#234));
#125=EDGE_CURVE('',#69,#107,#235,.T.);
#126=PRESENTATION_STYLE_ASSIGNMENT((#236));
#127=EDGE_CURVE('',#109,#79,#237,.T.);
#128=PRESENTATION_STYLE_ASSIGNMENT((#238));
#129=EDGE_CURVE('',#109,#113,#239,.T.);
#130=PRESENTATION_STYLE_ASSIGNMENT((#240));
#131=ADVANCED_FACE('',(#241),#242,.T.);
#132=PRESENTATION_STYLE_ASSIGNMENT((#243));
#133=EDGE_CURVE('',#99,#79,#244,.T.);
#134=PRESENTATION_STYLE_ASSIGNMENT((#245));
#135=EDGE_CURVE('',#69,#109,#246,.T.);
#136=PRESENTATION_STYLE_ASSIGNMENT((#247));
#137=ADVANCED_FACE('',(#248),#249,.T.);
#138=PRESENTATION_STYLE_ASSIGNMENT((#250));
#139=EDGE_CURVE('',#115,#117,#251,.T.);
#140=PRESENTATION_STYLE_ASSIGNMENT((#252));
#141=EDGE_CURVE('',#73,#145,#253,.T.);
#142=PRESENTATION_STYLE_ASSIGNMENT((#254));
#143=EDGE_CURVE('',#145,#117,#255,.T.);
#144=PRESENTATION_STYLE_ASSIGNMENT((#256));
#145=VERTEX_POINT('',#257);
#146=PRESENTATION_STYLE_ASSIGNMENT((#258));
#147=ADVANCED_FACE('',(#259),#260,.T.);
#148=PRESENTATION_STYLE_ASSIGNMENT((#261));
#149=ADVANCED_FACE('',(#262),#263,.T.);
#150=PRESENTATION_STYLE_ASSIGNMENT((#264));
#151=ADVANCED_FACE('',(#265),#266,.T.);
#152=PRODUCT('1','1','PART-1-DESC',(#267));
#153=PRODUCT_DEFINITION('NONE','NONE',#268,#2);
#154=MANIFOLD_SOLID_BREP('1',#269);
#155=AXIS2_PLACEMENT_3D('',#270,#271,#272);
#158=LENGTH_MEASURE_WITH_UNIT(LENGTH_MEASURE(1.0),#273);
#161=DIMENSIONAL_EXPONENTS(1.0,0.0,0.0,0.0,0.0,0.0,0.0);
#163=DIMENSIONAL_EXPONENTS(0.0,0.0,0.0,0.0,0.0,0.0,0.0);
#169=CURVE_STYLE('',#274,POSITIVE_LENGTH_MEASURE(1.0E-006),#275);
#170=CIRCLE('',#276,6.0);
#171=POINT_STYLE(' ',#277,POSITIVE_LENGTH_MEASURE(1.0E-006),#278);
#172=CARTESIAN_POINT('',(-5.4,-1.51851187873975E-015,-14.0));
#173=SURFACE_STYLE_USAGE(.BOTH.,#279);
#174=FACE_OUTER_BOUND('',#280,.T.);
#175=CYLINDRICAL_SURFACE('',#281,6.0);
#176=POINT_STYLE(' ',#282,POSITIVE_LENGTH_MEASURE(1.0E-006),#283);
#177=CARTESIAN_POINT('',(12.5,0.0,0.0));
#178=CURVE_STYLE('',#284,POSITIVE_LENGTH_MEASURE(1.0E-006),#285);
#179=CIRCLE('',#286,6.0);
#180=CURVE_STYLE('',#287,POSITIVE_LENGTH_MEASURE(1.0E-006),#288);
#181=LINE('',#289,#290);
#182=POINT_STYLE(' ',#291,POSITIVE_LENGTH_MEASURE(1.0E-006),#292);
#183=CARTESIAN_POINT('',(-6.0,-7.34763812293426E-016,4.49898216546641E-032));
#184=CURVE_STYLE('',#293,POSITIVE_LENGTH_MEASURE(1.0E-006),#294);
#185=CIRCLE('',#295,12.5);
#186=SURFACE_STYLE_USAGE(.BOTH.,#296);
#187=FACE_BOUND('',#297,.T.);
#188=FACE_OUTER_BOUND('',#298,.T.);
#189=PLANE('',#299);
#190=CURVE_STYLE('',#300,POSITIVE_LENGTH_MEASURE(1.0E-006),#301);
#191=CIRCLE('',#302,12.5);
#192=CURVE_STYLE('',#303,POSITIVE_LENGTH_MEASURE(1.0E-006),#304);
#193=CIRCLE('',#305,11.7);
#194=SURFACE_STYLE_USAGE(.BOTH.,#306);
#195=FACE_OUTER_BOUND('',#307,.T.);
#196=CONICAL_SURFACE('',#308,12.1,0.785398163397449);
#197=CURVE_STYLE('',#309,POSITIVE_LENGTH_MEASURE(1.0E-006),#310);
#198=LINE('',#311,#312);
#199=CURVE_STYLE('',#313,POSITIVE_LENGTH_MEASURE(1.0E-006),#314);
#200=LINE('',#315,#316);
#201=CURVE_STYLE('',#317,POSITIVE_LENGTH_MEASURE(1.0E-006),#318);
#202=CIRCLE('',#319,5.4);
#203=CURVE_STYLE('',#320,POSITIVE_LENGTH_MEASURE(1.0E-006),#321);
#204=CIRCLE('',#322,11.7);
#205=POINT_STYLE(' ',#323,POSITIVE_LENGTH_MEASURE(1.0E-006),#324);
#206=CARTESIAN_POINT('',(6.0,0.0,0.0));
#207=SURFACE_STYLE_USAGE(.BOTH.,#325);
#208=FACE_OUTER_BOUND('',#326,.T.);
#209=PLANE('',#327);
#210=SURFACE_STYLE_USAGE(.BOTH.,#328);
#211=FACE_OUTER_BOUND('',#329,.T.);
#212=CONICAL_SURFACE('',#330,5.7,0.197395559849881);
#213=SURFACE_STYLE_USAGE(.BOTH.,#331);
#214=FACE_OUTER_BOUND('',#332,.T.);
#215=PLANE('',#333);
#216=POINT_STYLE(' ',#334,POSITIVE_LENGTH_MEASURE(1.0E-006),#335);
#217=CARTESIAN_POINT('',(5.4,-8.57224447675664E-016,-14.0));
#218=POINT_STYLE(' ',#336,POSITIVE_LENGTH_MEASURE(1.0E-006),#337);
#219=CARTESIAN_POINT('',(-6.0,-1.40829730689573E-015,-11.0));
#220=CURVE_STYLE('',#338,POSITIVE_LENGTH_MEASURE(1.0E-006),#339);
#221=LINE('',#340,#341);
#222=POINT_STYLE(' ',#342,POSITIVE_LENGTH_MEASURE(1.0E-006),#343);
#223=CARTESIAN_POINT('',(6.0,-6.73533494602307E-016,-11.0));
#224=POINT_STYLE(' ',#344,POSITIVE_LENGTH_MEASURE(1.0E-006),#345);
#225=CARTESIAN_POINT('',(12.5,4.40858287376056E-016,7.2));
#226=POINT_STYLE(' ',#346,POSITIVE_LENGTH_MEASURE(1.0E-006),#347);
#227=CARTESIAN_POINT('',(-12.5,-1.08989965490192E-015,7.2));
#228=CURVE_STYLE('',#348,POSITIVE_LENGTH_MEASURE(1.0E-006),#349);
#229=LINE('',#350,#351);
#230=POINT_STYLE(' ',#352,POSITIVE_LENGTH_MEASURE(1.0E-006),#353);
#231=CARTESIAN_POINT('',(-11.7,-9.42946892443231E-016,8.0));
#232=POINT_STYLE(' ',#354,POSITIVE_LENGTH_MEASURE(1.0E-006),#355);
#233=CARTESIAN_POINT('',(11.7,4.89842541528951E-016,8.0));
#234=CURVE_STYLE('',#356,POSITIVE_LENGTH_MEASURE(1.0E-006),#357);
#235=CIRCLE('',#358,5.4);
#236=CURVE_STYLE('',#359,POSITIVE_LENGTH_MEASURE(1.0E-006),#360);
#237=LINE('',#361,#362);
#238=CURVE_STYLE('',#363,POSITIVE_LENGTH_MEASURE(1.0E-006),#364);
#239=CIRCLE('',#365,6.0);
#240=SURFACE_STYLE_USAGE(.BOTH.,#366);
#241=FACE_OUTER_BOUND('',#367,.T.);
#242=CYLINDRICAL_SURFACE('',#368,12.5);
#243=CURVE_STYLE('',#369,POSITIVE_LENGTH_MEASURE(1.0E-006),#370);
#244=CIRCLE('',#371,6.0);
#245=CURVE_STYLE('',#372,POSITIVE_LENGTH_MEASURE(1.0E-006),#373);
#246=LINE('',#374,#375);
#247=SURFACE_STYLE_USAGE(.BOTH.,#376);
#248=FACE_OUTER_BOUND('',#377,.T.);
#249=CONICAL_SURFACE('',#378,5.7,0.197395559849881);
#250=CURVE_STYLE('',#379,POSITIVE_LENGTH_MEASURE(1.0E-006),#380);
#251=CIRCLE('',#381,12.5);
#252=CURVE_STYLE('',#382,POSITIVE_LENGTH_MEASURE(1.0E-006),#383);
#253=CIRCLE('',#384,12.5);
#254=CURVE_STYLE('',#385,POSITIVE_LENGTH_MEASURE(1.0E-006),#386);
#255=LINE('',#387,#388);
#256=POINT_STYLE(' ',#389,POSITIVE_LENGTH_MEASURE(1.0E-006),#390);
#257=CARTESIAN_POINT('',(-12.5,-1.53075794227797E-015,9.37287951138836E-032));
#258=SURFACE_STYLE_USAGE(.BOTH.,#391);
#259=FACE_OUTER_BOUND('',#392,.T.);
#260=CYLINDRICAL_SURFACE('',#393,6.0);
#261=SURFACE_STYLE_USAGE(.BOTH.,#394);
#262=FACE_OUTER_BOUND('',#395,.T.);
#263=CONICAL_SURFACE('',#396,12.1,0.785398163397449);
#264=SURFACE_STYLE_USAGE(.BOTH.,#397);
#265=FACE_OUTER_BOUND('',#398,.T.);
#266=CYLINDRICAL_SURFACE('',#399,12.5);
#267=PRODUCT_CONTEXT('',#53,'mechanical');
#268=PRODUCT_DEFINITION_FORMATION_WITH_SPECIFIED_SOURCE(' ','NONE',#152,.NOT_KNOWN.);
#269=CLOSED_SHELL('',(#137,#147,#131,#149,#101,#89,#151,#83,#71,#103,#105));
#270=CARTESIAN_POINT('',(0.0,0.0,0.0));
#271=DIRECTION('',(0.0,0.0,1.0));
#272=DIRECTION('',(1.0,0.0,0.0));
#273= (NAMED_UNIT(#161)LENGTH_UNIT()SI_UNIT(.MILLI.,.METRE.));
#274=DRAUGHTING_PRE_DEFINED_CURVE_FONT('continuous');
#275=COLOUR_RGB('',0.509803950786591,0.509803950786591,0.588235318660736);
#276=AXIS2_PLACEMENT_3D('',#401,#402,#403);
#277=PRE_DEFINED_MARKER('');
#278=COLOUR_RGB('',0.509803950786591,0.509803950786591,0.588235318660736);
#279=SURFACE_SIDE_STYLE('',(#404));
#280=EDGE_LOOP('',(#405,#406,#407,#408));
#281=AXIS2_PLACEMENT_3D('',#409,#410,#411);
#282=PRE_DEFINED_MARKER('');
#283=COLOUR_RGB('',0.509803950786591,0.509803950786591,0.588235318660736);
#284=DRAUGHTING_PRE_DEFINED_CURVE_FONT('continuous');
#285=COLOUR_RGB('',0.509803950786591,0.509803950786591,0.588235318660736);
#286=AXIS2_PLACEMENT_3D('',#412,#413,#414);
#287=DRAUGHTING_PRE_DEFINED_CURVE_FONT('continuous');
#288=COLOUR_RGB('',0.509803950786591,0.509803950786591,0.588235318660736);
#289=CARTESIAN_POINT('',(6.0,3.97997064992273E-016,-5.5));
#290=VECTOR('',#415,1.0);
#291=PRE_DEFINED_MARKER('');
#292=COLOUR_RGB('',0.509803950786591,0.509803950786591,0.588235318660736);
#293=DRAUGHTING_PRE_DEFINED_CURVE_FONT('continuous');
#294=COLOUR_RGB('',0.509803950786591,0.509803950786591,0.588235318660736);
#295=AXIS2_PLACEMENT_3D('',#416,#417,#418);
#296=SURFACE_SIDE_STYLE('',(#419));
#297=EDGE_LOOP('',(#420,#421));
#298=EDGE_LOOP('',(#422,#423));
#299=AXIS2_PLACEMENT_3D('',#424,#425,#426);
#300=DRAUGHTING_PRE_DEFINED_CURVE_FONT('continuous');
#301=COLOUR_RGB('',0.509803950786591,0.509803950786591,0.588235318660736);
#302=AXIS2_PLACEMENT_3D('',#427,#428,#429);
#303=DRAUGHTING_PRE_DEFINED_CURVE_FONT('continuous');
#304=COLOUR_RGB('',0.509803950786591,0.509803950786591,0.588235318660736);
#305=AXIS2_PLACEMENT_3D('',#430,#431,#432);
#306=SURFACE_SIDE_STYLE('',(#433));
#307=EDGE_LOOP('',(#434,#435,#436,#437));
#308=AXIS2_PLACEMENT_3D('',#438,#439,#440);
#309=DRAUGHTING_PRE_DEFINED_CURVE_FONT('continuous');
#310=COLOUR_RGB('',0.509803950786591,0.509803950786591,0.588235318660736);
#311=CARTESIAN_POINT('',(5.7,-6.73533494602306E-017,-12.5));
#312=VECTOR('',#441,1.0);
#313=DRAUGHTING_PRE_DEFINED_CURVE_FONT('continuous');
#314=COLOUR_RGB('',0.509803950786591,0.509803950786591,0.588235318660736);
#315=CARTESIAN_POINT('',(-12.1,-1.01642327367257E-015,7.6));
#316=VECTOR('',#442,1.0);
#317=DRAUGHTING_PRE_DEFINED_CURVE_FONT('continuous');
#318=COLOUR_RGB('',0.509803950786591,0.509803950786591,0.588235318660736);
#319=AXIS2_PLACEMENT_3D('',#443,#444,#445);
#320=DRAUGHTING_PRE_DEFINED_CURVE_FONT('continuous');
#321=COLOUR_RGB('',0.509803950786591,0.509803950786591,0.588235318660736);
#322=AXIS2_PLACEMENT_3D('',#446,#447,#448);
#323=PRE_DEFINED_MARKER('');
#324=COLOUR_RGB('',0.509803950786591,0.509803950786591,0.588235318660736);
#325=SURFACE_SIDE_STYLE('',(#449));
#326=EDGE_LOOP('',(#450,#451));
#327=AXIS2_PLACEMENT_3D('',#452,#453,#454);
#328=SURFACE_SIDE_STYLE('',(#455));
#329=EDGE_LOOP('',(#456,#457,#458,#459));
#330=AXIS2_PLACEMENT_3D('',#460,#461,#462);
#331=SURFACE_SIDE_STYLE('',(#463));
#332=EDGE_LOOP('',(#464,#465));
#333=AXIS2_PLACEMENT_3D('',#466,#467,#468);
#334=PRE_DEFINED_MARKER('');
#335=COLOUR_RGB('',0.509803950786591,0.509803950786591,0.588235318660736);
#336=PRE_DEFINED_MARKER('');
#337=COLOUR_RGB('',0.509803950786591,0.509803950786591,0.588235318660736);
#338=DRAUGHTING_PRE_DEFINED_CURVE_FONT('continuous');
#339=COLOUR_RGB('',0.509803950786591,0.509803950786591,0.588235318660736);
#340=CARTESIAN_POINT('',(12.5,1.751187085966E-015,3.6));
#341=VECTOR('',#469,1.0);
#342=PRE_DEFINED_MARKER('');
#343=COLOUR_RGB('',0.509803950786591,0.509803950786591,0.588235318660736);
#344=PRE_DEFINED_MARKER('');
#345=COLOUR_RGB('',0.509803950786591,0.509803950786591,0.588235318660736);
#346=PRE_DEFINED_MARKER('');
#347=COLOUR_RGB('',0.509803950786591,0.509803950786591,0.588235318660736);
#348=DRAUGHTING_PRE_DEFINED_CURVE_FONT('continuous');
#349=COLOUR_RGB('',0.509803950786591,0.509803950786591,0.588235318660736);
#350=CARTESIAN_POINT('',(12.1,1.94712410257758E-015,7.6));
#351=VECTOR('',#470,1.0);
#352=PRE_DEFINED_MARKER('');
#353=COLOUR_RGB('',0.509803950786591,0.509803950786591,0.588235318660736);
#354=PRE_DEFINED_MARKER('');
#355=COLOUR_RGB('',0.509803950786591,0.509803950786591,0.588235318660736);
#356=DRAUGHTING_PRE_DEFINED_CURVE_FONT('continuous');
#357=COLOUR_RGB('',0.509803950786591,0.509803950786591,0.588235318660736);
#358=AXIS2_PLACEMENT_3D('',#471,#472,#473);
#359=DRAUGHTING_PRE_DEFINED_CURVE_FONT('continuous');
#360=COLOUR_RGB('',0.509803950786591,0.509803950786591,0.588235318660736);
#361=CARTESIAN_POINT('',(-6.0,-1.07153055959458E-015,-5.5));
#362=VECTOR('',#474,1.0);
#363=DRAUGHTING_PRE_DEFINED_CURVE_FONT('continuous');
#364=COLOUR_RGB('',0.509803950786591,0.509803950786591,0.588235318660736);
#365=AXIS2_PLACEMENT_3D('',#475,#476,#477);
#366=SURFACE_SIDE_STYLE('',(#478));
#367=EDGE_LOOP('',(#479,#480,#481,#482));
#368=AXIS2_PLACEMENT_3D('',#483,#484,#485);
#369=DRAUGHTING_PRE_DEFINED_CURVE_FONT('continuous');
#370=COLOUR_RGB('',0.509803950786591,0.509803950786591,0.588235318660736);
#371=AXIS2_PLACEMENT_3D('',#486,#487,#488);
#372=DRAUGHTING_PRE_DEFINED_CURVE_FONT('continuous');
#373=COLOUR_RGB('',0.509803950786591,0.509803950786591,0.588235318660736);
#374=CARTESIAN_POINT('',(-5.7,-1.46340459281774E-015,-12.5));
#375=VECTOR('',#489,1.0);
#376=SURFACE_SIDE_STYLE('',(#490));
#377=EDGE_LOOP('',(#491,#492,#493,#494));
#378=AXIS2_PLACEMENT_3D('',#495,#496,#497);
#379=DRAUGHTING_PRE_DEFINED_CURVE_FONT('continuous');
#380=COLOUR_RGB('',0.509803950786591,0.509803950786591,0.588235318660736);
#381=AXIS2_PLACEMENT_3D('',#498,#499,#500);
#382=DRAUGHTING_PRE_DEFINED_CURVE_FONT('continuous');
#383=COLOUR_RGB('',0.509803950786591,0.509803950786591,0.588235318660736);
#384=AXIS2_PLACEMENT_3D('',#501,#502,#503);
#385=DRAUGHTING_PRE_DEFINED_CURVE_FONT('continuous');
#386=COLOUR_RGB('',0.509803950786591,0.509803950786591,0.588235318660736);
#387=CARTESIAN_POINT('',(-12.5,-1.31032879858994E-015,3.6));
#388=VECTOR('',#504,1.0);
#389=PRE_DEFINED_MARKER('');
#390=COLOUR_RGB('',0.509803950786591,0.509803950786591,0.588235318660736);
#391=SURFACE_SIDE_STYLE('',(#505));
#392=EDGE_LOOP('',(#506,#507,#508,#509));
#393=AXIS2_PLACEMENT_3D('',#510,#511,#512);
#394=SURFACE_SIDE_STYLE('',(#513));
#395=EDGE_LOOP('',(#514,#515,#516,#517));
#396=AXIS2_PLACEMENT_3D('',#518,#519,#520);
#397=SURFACE_SIDE_STYLE('',(#521));
#398=EDGE_LOOP('',(#522,#523,#524,#525));
#399=AXIS2_PLACEMENT_3D('',#526,#527,#528);
#401=CARTESIAN_POINT('',(0.0,-6.73533494602307E-016,-11.0));
#402=DIRECTION('',(0.0,-6.12303176911189E-017,-1.0));
#403=DIRECTION('',(1.0,0.0,0.0));
#404=SURFACE_STYLE_FILL_AREA(#529);
#405=ORIENTED_EDGE('',*,*,#77,.T.);
#406=ORIENTED_EDGE('',*,*,#129,.F.);
#407=ORIENTED_EDGE('',*,*,#127,.T.);
#408=ORIENTED_EDGE('',*,*,#75,.T.);
#409=CARTESIAN_POINT('',(0.0,-3.36766747301154E-016,-5.5));
#410=DIRECTION('',(-0.0,6.12303176911189E-017,1.0));
#411=DIRECTION('',(1.0,0.0,0.0));
#412=CARTESIAN_POINT('',(0.0,0.0,0.0));
#413=DIRECTION('',(0.0,-6.12303176911189E-017,-1.0));
#414=DIRECTION('',(1.0,0.0,0.0));
#415=DIRECTION('',(0.0,-6.12303176911189E-017,-1.0));
#416=CARTESIAN_POINT('',(0.0,0.0,0.0));
#417=DIRECTION('',(0.0,-6.12303176911189E-017,-1.0));
#418=DIRECTION('',(1.0,0.0,0.0));
#419=SURFACE_STYLE_FILL_AREA(#530);
#420=ORIENTED_EDGE('',*,*,#133,.F.);
#421=ORIENTED_EDGE('',*,*,#75,.F.);
#422=ORIENTED_EDGE('',*,*,#141,.T.);
#423=ORIENTED_EDGE('',*,*,#81,.T.);
#424=CARTESIAN_POINT('',(9.25,0.0,0.0));
#425=DIRECTION('',(0.0,-6.12303176911189E-017,-1.0));
#426=DIRECTION('',(1.0,0.0,0.0));
#427=CARTESIAN_POINT('',(0.0,4.40858287376056E-016,7.2));
#428=DIRECTION('',(0.0,-6.12303176911189E-017,-1.0));
#429=DIRECTION('',(1.0,0.0,0.0));
#430=CARTESIAN_POINT('',(0.0,4.89842541528951E-016,8.0));
#431=DIRECTION('',(0.0,-6.12303176911189E-017,-1.0));
#432=DIRECTION('',(1.0,0.0,0.0));
#433=SURFACE_STYLE_FILL_AREA(#531);
#434=ORIENTED_EDGE('',*,*,#119,.T.);
#435=ORIENTED_EDGE('',*,*,#85,.F.);
#436=ORIENTED_EDGE('',*,*,#93,.T.);
#437=ORIENTED_EDGE('',*,*,#87,.T.);
#438=CARTESIAN_POINT('',(0.0,4.65350414452503E-016,7.6));
#439=DIRECTION('',(0.0,-6.12303176911189E-017,-1.0));
#440=DIRECTION('',(1.0,0.0,0.0));
#441=DIRECTION('',(-0.196116135138184,-8.40577728120578E-017,-0.98058067569092));
#442=DIRECTION('',(0.707106781186548,1.2988911856079E-016,0.707106781186547));
#443=CARTESIAN_POINT('',(0.0,-8.57224447675664E-016,-14.0));
#444=DIRECTION('',(0.0,-6.12303176911189E-017,-1.0));
#445=DIRECTION('',(1.0,0.0,0.0));
#446=CARTESIAN_POINT('',(0.0,4.89842541528951E-016,8.0));
#447=DIRECTION('',(0.0,-6.12303176911189E-017,-1.0));
#448=DIRECTION('',(1.0,0.0,0.0));
#449=SURFACE_STYLE_FILL_AREA(#532);
#450=ORIENTED_EDGE('',*,*,#97,.F.);
#451=ORIENTED_EDGE('',*,*,#87,.F.);
#452=CARTESIAN_POINT('',(5.85,4.89842541528951E-016,8.0));
#453=DIRECTION('',(0.0,6.12303176911189E-017,1.0));
#454=DIRECTION('',(-1.0,0.0,0.0));
#455=SURFACE_STYLE_FILL_AREA(#533);
#456=ORIENTED_EDGE('',*,*,#91,.T.);
#457=ORIENTED_EDGE('',*,*,#125,.F.);
#458=ORIENTED_EDGE('',*,*,#135,.T.);
#459=ORIENTED_EDGE('',*,*,#129,.T.);
#460=CARTESIAN_POINT('',(0.0,-7.65378971138986E-016,-12.5));
#461=DIRECTION('',(-0.0,6.12303176911189E-017,1.0));
#462=DIRECTION('',(1.0,0.0,0.0));
#463=SURFACE_STYLE_FILL_AREA(#534);
#464=ORIENTED_EDGE('',*,*,#95,.T.);
#465=ORIENTED_EDGE('',*,*,#125,.T.);
#466=CARTESIAN_POINT('',(2.7,-8.57224447675664E-016,-14.0));
#467=DIRECTION('',(0.0,-6.12303176911189E-017,-1.0));
#468=DIRECTION('',(1.0,0.0,0.0));
#469=DIRECTION('',(0.0,-6.12303176911189E-017,-1.0));
#470=DIRECTION('',(0.707106781186548,4.32963728535969E-017,-0.707106781186547));
#471=CARTESIAN_POINT('',(0.0,-8.57224447675664E-016,-14.0));
#472=DIRECTION('',(0.0,-6.12303176911189E-017,-1.0));
#473=DIRECTION('',(1.0,0.0,0.0));
#474=DIRECTION('',(-0.0,6.12303176911189E-017,1.0));
#475=CARTESIAN_POINT('',(0.0,-6.73533494602307E-016,-11.0));
#476=DIRECTION('',(0.0,-6.12303176911189E-017,-1.0));
#477=DIRECTION('',(1.0,0.0,0.0));
#478=SURFACE_STYLE_FILL_AREA(#535);
#479=ORIENTED_EDGE('',*,*,#111,.F.);
#480=ORIENTED_EDGE('',*,*,#139,.T.);
#481=ORIENTED_EDGE('',*,*,#143,.F.);
#482=ORIENTED_EDGE('',*,*,#141,.F.);
#483=CARTESIAN_POINT('',(0.0,2.20429143688028E-016,3.6));
#484=DIRECTION('',(-0.0,6.12303176911189E-017,1.0));
#485=DIRECTION('',(1.0,0.0,0.0));
#486=CARTESIAN_POINT('',(0.0,0.0,0.0));
#487=DIRECTION('',(0.0,-6.12303176911189E-017,-1.0));
#488=DIRECTION('',(1.0,0.0,0.0));
#489=DIRECTION('',(-0.196116135138184,3.60247597765962E-017,0.98058067569092));
#490=SURFACE_STYLE_FILL_AREA(#536);
#491=ORIENTED_EDGE('',*,*,#91,.F.);
#492=ORIENTED_EDGE('',*,*,#67,.T.);
#493=ORIENTED_EDGE('',*,*,#135,.F.);
#494=ORIENTED_EDGE('',*,*,#95,.F.);
#495=CARTESIAN_POINT('',(0.0,-7.65378971138986E-016,-12.5));
#496=DIRECTION('',(-0.0,6.12303176911189E-017,1.0));
#497=DIRECTION('',(1.0,0.0,0.0));
#498=CARTESIAN_POINT('',(0.0,4.40858287376056E-016,7.2));
#499=DIRECTION('',(0.0,-6.12303176911189E-017,-1.0));
#500=DIRECTION('',(1.0,0.0,0.0));
#501=CARTESIAN_POINT('',(0.0,0.0,0.0));
#502=DIRECTION('',(0.0,-6.12303176911189E-017,-1.0));
#503=DIRECTION('',(1.0,0.0,0.0));
#504=DIRECTION('',(-0.0,6.12303176911189E-017,1.0));
#505=SURFACE_STYLE_FILL_AREA(#537);
#506=ORIENTED_EDGE('',*,*,#77,.F.);
#507=ORIENTED_EDGE('',*,*,#133,.T.);
#508=ORIENTED_EDGE('',*,*,#127,.F.);
#509=ORIENTED_EDGE('',*,*,#67,.F.);
#510=CARTESIAN_POINT('',(0.0,-3.36766747301154E-016,-5.5));
#511=DIRECTION('',(-0.0,6.12303176911189E-017,1.0));
#512=DIRECTION('',(1.0,0.0,0.0));
#513=SURFACE_STYLE_FILL_AREA(#538);
#514=ORIENTED_EDGE('',*,*,#119,.F.);
#515=ORIENTED_EDGE('',*,*,#97,.T.);
#516=ORIENTED_EDGE('',*,*,#93,.F.);
#517=ORIENTED_EDGE('',*,*,#139,.F.);
#518=CARTESIAN_POINT('',(0.0,4.65350414452503E-016,7.6));
#519=DIRECTION('',(0.0,-6.12303176911189E-017,-1.0));
#520=DIRECTION('',(1.0,0.0,0.0));
#521=SURFACE_STYLE_FILL_AREA(#539);
#522=ORIENTED_EDGE('',*,*,#111,.T.);
#523=ORIENTED_EDGE('',*,*,#81,.F.);
#524=ORIENTED_EDGE('',*,*,#143,.T.);
#525=ORIENTED_EDGE('',*,*,#85,.T.);
#526=CARTESIAN_POINT('',(0.0,2.20429143688028E-016,3.6));
#527=DIRECTION('',(-0.0,6.12303176911189E-017,1.0));
#528=DIRECTION('',(1.0,0.0,0.0));
#529=FILL_AREA_STYLE('',(#540));
#530=FILL_AREA_STYLE('',(#541));
#531=FILL_AREA_STYLE('',(#542));
#532=FILL_AREA_STYLE('',(#543));
#533=FILL_AREA_STYLE('',(#544));
#534=FILL_AREA_STYLE('',(#545));
#535=FILL_AREA_STYLE('',(#546));
#536=FILL_AREA_STYLE('',(#547));
#537=FILL_AREA_STYLE('',(#548));
#538=FILL_AREA_STYLE('',(#549));
#539=FILL_AREA_STYLE('',(#550));
#540=FILL_AREA_STYLE_COLOUR('',#551);
#541=FILL_AREA_STYLE_COLOUR('',#552);
#542=FILL_AREA_STYLE_COLOUR('',#553);
#543=FILL_AREA_STYLE_COLOUR('',#554);
#544=FILL_AREA_STYLE_COLOUR('',#555);
#545=FILL_AREA_STYLE_COLOUR('',#556);
#546=FILL_AREA_STYLE_COLOUR('',#557);
#547=FILL_AREA_STYLE_COLOUR('',#558);
#548=FILL_AREA_STYLE_COLOUR('',#559);
#549=FILL_AREA_STYLE_COLOUR('',#560);
#550=FILL_AREA_STYLE_COLOUR('',#561);
#551=COLOUR_RGB('',0.509803950786591,0.509803950786591,0.588235318660736);
#552=COLOUR_RGB('',0.509803950786591,0.509803950786591,0.588235318660736);
#553=COLOUR_RGB('',0.509803950786591,0.509803950786591,0.588235318660736);
#554=COLOUR_RGB('',0.509803950786591,0.509803950786591,0.588235318660736);
#555=COLOUR_RGB('',0.509803950786591,0.509803950786591,0.588235318660736);
#556=COLOUR_RGB('',0.509803950786591,0.509803950786591,0.588235318660736);
#557=COLOUR_RGB('',0.509803950786591,0.509803950786591,0.588235318660736);
#558=COLOUR_RGB('',0.509803950786591,0.509803950786591,0.588235318660736);
#559=COLOUR_RGB('',0.509803950786591,0.509803950786591,0.588235318660736);
#560=COLOUR_RGB('',0.509803950786591,0.509803950786591,0.588235318660736);
#561=COLOUR_RGB('',0.509803950786591,0.509803950786591,0.588235318660736);
ENDSEC;
END-ISO-10303-21;
