ISO-10303-21;
HEADER;
FILE_DESCRIPTION(('STEP AP214'),'1');
FILE_NAME('HALDERN_EH_22150_0237.stp','2017-07-04T08:59:00',('TraceParts'),('TraceParts S.A.'),'Spatial InterOp 3D',' ',' ');
FILE_SCHEMA(('automotive_design'));
ENDSEC;
DATA;
#1=MECHANICAL_DESIGN_GEOMETRIC_PRESENTATION_REPRESENTATION(' ',(#14,#15,#16,#17,#18,#19,#20,#21,#22,#23,#24,#25,#26),#10);
#2=PRODUCT_DEFINITION_CONTEXT('',#27,'design');
#3=APPLICATION_PROTOCOL_DEFINITION('INTERNATIONAL STANDARD','automotive_design',1994,#27);
#4=PRODUCT_CATEGORY_RELATIONSHIP('NONE','NONE',#28,#29);
#5=SHAPE_DEFINITION_REPRESENTATION(#30,#31);
#6=PRODUCT_DEFINITION_CONTEXT('',#32,'design');
#7=APPLICATION_PROTOCOL_DEFINITION('INTERNATIONAL STANDARD','automotive_design',1994,#32);
#8=PRODUCT_CATEGORY_RELATIONSHIP('NONE','NONE',#33,#34);
#9=SHAPE_DEFINITION_REPRESENTATION(#35,#36);
#10= (GEOMETRIC_REPRESENTATION_CONTEXT(3)GLOBAL_UNCERTAINTY_ASSIGNED_CONTEXT((#39))GLOBAL_UNIT_ASSIGNED_CONTEXT((#41,#42,#43))REPRESENTATION_CONTEXT('NONE','WORKSPACE'));
#14=STYLED_ITEM('',(#45),#46);
#15=STYLED_ITEM('',(#47),#48);
#16=STYLED_ITEM('',(#49),#50);
#17=STYLED_ITEM('',(#51),#52);
#18=STYLED_ITEM('',(#53),#54);
#19=STYLED_ITEM('',(#55),#56);
#20=STYLED_ITEM('',(#57),#58);
#21=STYLED_ITEM('',(#59),#60);
#22=STYLED_ITEM('',(#61),#62);
#23=STYLED_ITEM('',(#63),#64);
#24=STYLED_ITEM('',(#65),#66);
#25=STYLED_ITEM('',(#67),#68);
#26=STYLED_ITEM('',(#69),#70);
#27=APPLICATION_CONTEXT(' ');
#28=PRODUCT_CATEGORY('part','NONE');
#29=PRODUCT_RELATED_PRODUCT_CATEGORY('detail',' ',(#71));
#30=PRODUCT_DEFINITION_SHAPE('NONE','NONE',#72);
#31=ADVANCED_BREP_SHAPE_REPRESENTATION('HALDERN_EH_22150_0237_1',(#73,#74),#10);
#32=APPLICATION_CONTEXT(' ');
#33=PRODUCT_CATEGORY('part','NONE');
#34=PRODUCT_RELATED_PRODUCT_CATEGORY('detail',' ',(#75));
#35=PRODUCT_DEFINITION_SHAPE('NONE','NONE',#76);
#36=ADVANCED_BREP_SHAPE_REPRESENTATION('HALDERN_EH_22150_0237_2',(#77,#78),#10);
#39=UNCERTAINTY_MEASURE_WITH_UNIT(LENGTH_MEASURE(1.0E-006),#41,'','');
#41= (CONVERSION_BASED_UNIT('MILLIMETRE',#81)LENGTH_UNIT()NAMED_UNIT(#84));
#42= (NAMED_UNIT(#86)PLANE_ANGLE_UNIT()SI_UNIT($,.RADIAN.));
#43= (NAMED_UNIT(#86)SOLID_ANGLE_UNIT()SI_UNIT($,.STERADIAN.));
#45=PRESENTATION_STYLE_ASSIGNMENT((#92));
#46=ADVANCED_FACE('',(#93),#94,.T.);
#47=PRESENTATION_STYLE_ASSIGNMENT((#95));
#48=ADVANCED_FACE('',(#96),#97,.F.);
#49=PRESENTATION_STYLE_ASSIGNMENT((#98));
#50=ADVANCED_FACE('',(#99),#100,.F.);
#51=PRESENTATION_STYLE_ASSIGNMENT((#101));
#52=ADVANCED_FACE('',(#102),#103,.T.);
#53=PRESENTATION_STYLE_ASSIGNMENT((#104));
#54=ADVANCED_FACE('',(#105,#106),#107,.T.);
#55=PRESENTATION_STYLE_ASSIGNMENT((#108));
#56=ADVANCED_FACE('',(#109,#110),#111,.T.);
#57=PRESENTATION_STYLE_ASSIGNMENT((#112));
#58=ADVANCED_FACE('',(#113),#114,.T.);
#59=PRESENTATION_STYLE_ASSIGNMENT((#115));
#60=ADVANCED_FACE('',(#116),#117,.T.);
#61=PRESENTATION_STYLE_ASSIGNMENT((#118));
#62=ADVANCED_FACE('',(#119),#120,.T.);
#63=PRESENTATION_STYLE_ASSIGNMENT((#121));
#64=ADVANCED_FACE('',(#122),#123,.T.);
#65=PRESENTATION_STYLE_ASSIGNMENT((#124));
#66=ADVANCED_FACE('',(#125),#126,.T.);
#67=PRESENTATION_STYLE_ASSIGNMENT((#127));
#68=ADVANCED_FACE('',(#128),#129,.T.);
#69=PRESENTATION_STYLE_ASSIGNMENT((#130));
#70=ADVANCED_FACE('',(#131,#132),#133,.T.);
#71=PRODUCT('HALDERN_EH_22150_0237_1','HALDERN_EH_22150_0237_1','PART-HALDERN_EH_22150_0237_1-DESC',(#134));
#72=PRODUCT_DEFINITION('NONE','NONE',#135,#2);
#73=MANIFOLD_SOLID_BREP('HALDERN_EH_22150_0237_1',#136);
#74=AXIS2_PLACEMENT_3D('',#137,#138,#139);
#75=PRODUCT('HALDERN_EH_22150_0237_2','HALDERN_EH_22150_0237_2','PART-HALDERN_EH_22150_0237_2-DESC',(#140));
#76=PRODUCT_DEFINITION('NONE','NONE',#141,#6);
#77=MANIFOLD_SOLID_BREP('HALDERN_EH_22150_0237_2',#142);
#78=AXIS2_PLACEMENT_3D('',#143,#144,#145);
#81=LENGTH_MEASURE_WITH_UNIT(LENGTH_MEASURE(1.0),#146);
#84=DIMENSIONAL_EXPONENTS(1.0,0.0,0.0,0.0,0.0,0.0,0.0);
#86=DIMENSIONAL_EXPONENTS(0.0,0.0,0.0,0.0,0.0,0.0,0.0);
#92=SURFACE_STYLE_USAGE(.BOTH.,#147);
#93=FACE_OUTER_BOUND('',#148,.T.);
#94=CYLINDRICAL_SURFACE('',#149,5.0);
#95=SURFACE_STYLE_USAGE(.BOTH.,#150);
#96=FACE_OUTER_BOUND('',#151,.T.);
#97=CYLINDRICAL_SURFACE('',#152,2.1);
#98=SURFACE_STYLE_USAGE(.BOTH.,#153);
#99=FACE_OUTER_BOUND('',#154,.T.);
#100=CYLINDRICAL_SURFACE('',#155,2.1);
#101=SURFACE_STYLE_USAGE(.BOTH.,#156);
#102=FACE_OUTER_BOUND('',#157,.T.);
#103=CYLINDRICAL_SURFACE('',#158,5.0);
#104=SURFACE_STYLE_USAGE(.BOTH.,#159);
#105=FACE_BOUND('',#160,.T.);
#106=FACE_OUTER_BOUND('',#161,.T.);
#107=PLANE('',#162);
#108=SURFACE_STYLE_USAGE(.BOTH.,#163);
#109=FACE_BOUND('',#164,.T.);
#110=FACE_OUTER_BOUND('',#165,.T.);
#111=PLANE('',#166);
#112=SURFACE_STYLE_USAGE(.BOTH.,#167);
#113=FACE_OUTER_BOUND('',#168,.T.);
#114=SPHERICAL_SURFACE('',#169,3.0);
#115=SURFACE_STYLE_USAGE(.BOTH.,#170);
#116=FACE_OUTER_BOUND('',#171,.T.);
#117=CONICAL_SURFACE('',#172,2.53812819570141,0.125896769377455);
#118=SURFACE_STYLE_USAGE(.BOTH.,#173);
#119=FACE_OUTER_BOUND('',#174,.T.);
#120=CYLINDRICAL_SURFACE('',#175,2.1);
#121=SURFACE_STYLE_USAGE(.BOTH.,#176);
#122=FACE_OUTER_BOUND('',#177,.T.);
#123=CYLINDRICAL_SURFACE('',#178,2.1);
#124=SURFACE_STYLE_USAGE(.BOTH.,#179);
#125=FACE_OUTER_BOUND('',#180,.T.);
#126=PLANE('',#181);
#127=SURFACE_STYLE_USAGE(.BOTH.,#182);
#128=FACE_OUTER_BOUND('',#183,.T.);
#129=CONICAL_SURFACE('',#184,2.53812819570141,0.125896769377455);
#130=SURFACE_STYLE_USAGE(.BOTH.,#185);
#131=FACE_OUTER_BOUND('',#186,.T.);
#132=FACE_BOUND('',#187,.T.);
#133=SPHERICAL_SURFACE('',#188,3.0);
#134=PRODUCT_CONTEXT('',#27,'mechanical');
#135=PRODUCT_DEFINITION_FORMATION_WITH_SPECIFIED_SOURCE(' ','NONE',#71,.NOT_KNOWN.);
#136=CLOSED_SHELL('',(#46,#48,#50,#52,#54,#56));
#137=CARTESIAN_POINT('',(0.0,0.0,0.0));
#138=DIRECTION('',(0.0,0.0,1.0));
#139=DIRECTION('',(1.0,0.0,0.0));
#140=PRODUCT_CONTEXT('',#32,'mechanical');
#141=PRODUCT_DEFINITION_FORMATION_WITH_SPECIFIED_SOURCE(' ','NONE',#75,.NOT_KNOWN.);
#142=CLOSED_SHELL('',(#58,#60,#62,#64,#66,#68,#70));
#143=CARTESIAN_POINT('',(0.0,0.0,0.0));
#144=DIRECTION('',(0.0,0.0,1.0));
#145=DIRECTION('',(1.0,0.0,0.0));
#146= (NAMED_UNIT(#84)LENGTH_UNIT()SI_UNIT(.MILLI.,.METRE.));
#147=SURFACE_SIDE_STYLE('',(#190));
#148=EDGE_LOOP('',(#191,#192,#193,#194));
#149=AXIS2_PLACEMENT_3D('',#195,#196,#197);
#150=SURFACE_SIDE_STYLE('',(#198));
#151=EDGE_LOOP('',(#199,#200,#201,#202));
#152=AXIS2_PLACEMENT_3D('',#203,#204,#205);
#153=SURFACE_SIDE_STYLE('',(#206));
#154=EDGE_LOOP('',(#207,#208,#209,#210));
#155=AXIS2_PLACEMENT_3D('',#211,#212,#213);
#156=SURFACE_SIDE_STYLE('',(#214));
#157=EDGE_LOOP('',(#215,#216,#217,#218));
#158=AXIS2_PLACEMENT_3D('',#219,#220,#221);
#159=SURFACE_SIDE_STYLE('',(#222));
#160=EDGE_LOOP('',(#223,#224));
#161=EDGE_LOOP('',(#225,#226));
#162=AXIS2_PLACEMENT_3D('',#227,#228,#229);
#163=SURFACE_SIDE_STYLE('',(#230));
#164=EDGE_LOOP('',(#231,#232));
#165=EDGE_LOOP('',(#233,#234));
#166=AXIS2_PLACEMENT_3D('',#235,#236,#237);
#167=SURFACE_SIDE_STYLE('',(#238));
#168=EDGE_LOOP('',(#239,#240));
#169=AXIS2_PLACEMENT_3D('',#241,#242,#243);
#170=SURFACE_SIDE_STYLE('',(#244));
#171=EDGE_LOOP('',(#245,#246,#247,#248));
#172=AXIS2_PLACEMENT_3D('',#249,#250,#251);
#173=SURFACE_SIDE_STYLE('',(#252));
#174=EDGE_LOOP('',(#253,#254,#255,#256));
#175=AXIS2_PLACEMENT_3D('',#257,#258,#259);
#176=SURFACE_SIDE_STYLE('',(#260));
#177=EDGE_LOOP('',(#261,#262,#263,#264));
#178=AXIS2_PLACEMENT_3D('',#265,#266,#267);
#179=SURFACE_SIDE_STYLE('',(#268));
#180=EDGE_LOOP('',(#269,#270));
#181=AXIS2_PLACEMENT_3D('',#271,#272,#273);
#182=SURFACE_SIDE_STYLE('',(#274));
#183=EDGE_LOOP('',(#275,#276,#277,#278));
#184=AXIS2_PLACEMENT_3D('',#279,#280,#281);
#185=SURFACE_SIDE_STYLE('',(#282));
#186=EDGE_LOOP('',(#283,#284));
#187=EDGE_LOOP('',(#285,#286));
#188=AXIS2_PLACEMENT_3D('',#287,#288,#289);
#190=SURFACE_STYLE_FILL_AREA(#290);
#191=ORIENTED_EDGE('',*,*,#291,.F.);
#192=ORIENTED_EDGE('',*,*,#292,.F.);
#193=ORIENTED_EDGE('',*,*,#293,.F.);
#194=ORIENTED_EDGE('',*,*,#294,.F.);
#195=CARTESIAN_POINT('',(0.0,4.5,0.0));
#196=DIRECTION('',(-0.0,1.0,0.0));
#197=DIRECTION('',(1.0,0.0,0.0));
#198=SURFACE_STYLE_FILL_AREA(#295);
#199=ORIENTED_EDGE('',*,*,#296,.F.);
#200=ORIENTED_EDGE('',*,*,#297,.F.);
#201=ORIENTED_EDGE('',*,*,#298,.F.);
#202=ORIENTED_EDGE('',*,*,#299,.F.);
#203=CARTESIAN_POINT('',(0.0,4.5,0.0));
#204=DIRECTION('',(-0.0,1.0,0.0));
#205=DIRECTION('',(1.0,0.0,0.0));
#206=SURFACE_STYLE_FILL_AREA(#300);
#207=ORIENTED_EDGE('',*,*,#296,.T.);
#208=ORIENTED_EDGE('',*,*,#301,.F.);
#209=ORIENTED_EDGE('',*,*,#298,.T.);
#210=ORIENTED_EDGE('',*,*,#302,.F.);
#211=CARTESIAN_POINT('',(0.0,4.5,0.0));
#212=DIRECTION('',(-0.0,1.0,0.0));
#213=DIRECTION('',(1.0,0.0,0.0));
#214=SURFACE_STYLE_FILL_AREA(#303);
#215=ORIENTED_EDGE('',*,*,#291,.T.);
#216=ORIENTED_EDGE('',*,*,#304,.F.);
#217=ORIENTED_EDGE('',*,*,#293,.T.);
#218=ORIENTED_EDGE('',*,*,#305,.F.);
#219=CARTESIAN_POINT('',(0.0,4.5,0.0));
#220=DIRECTION('',(-0.0,1.0,0.0));
#221=DIRECTION('',(1.0,0.0,0.0));
#222=SURFACE_STYLE_FILL_AREA(#306);
#223=ORIENTED_EDGE('',*,*,#301,.T.);
#224=ORIENTED_EDGE('',*,*,#299,.T.);
#225=ORIENTED_EDGE('',*,*,#305,.T.);
#226=ORIENTED_EDGE('',*,*,#292,.T.);
#227=CARTESIAN_POINT('',(0.0,0.0,0.0));
#228=DIRECTION('',(0.0,-1.0,0.0));
#229=DIRECTION('',(-1.0,0.0,0.0));
#230=SURFACE_STYLE_FILL_AREA(#307);
#231=ORIENTED_EDGE('',*,*,#297,.T.);
#232=ORIENTED_EDGE('',*,*,#302,.T.);
#233=ORIENTED_EDGE('',*,*,#294,.T.);
#234=ORIENTED_EDGE('',*,*,#304,.T.);
#235=CARTESIAN_POINT('',(0.0,9.0,0.0));
#236=DIRECTION('',(-0.0,1.0,0.0));
#237=DIRECTION('',(1.0,0.0,0.0));
#238=SURFACE_STYLE_FILL_AREA(#308);
#239=ORIENTED_EDGE('',*,*,#309,.F.);
#240=ORIENTED_EDGE('',*,*,#310,.F.);
#241=CARTESIAN_POINT('',(0.0,16.3,0.0));
#242=DIRECTION('',(0.0,0.0,1.0));
#243=DIRECTION('',(1.0,0.0,0.0));
#244=SURFACE_STYLE_FILL_AREA(#311);
#245=ORIENTED_EDGE('',*,*,#312,.F.);
#246=ORIENTED_EDGE('',*,*,#313,.T.);
#247=ORIENTED_EDGE('',*,*,#314,.F.);
#248=ORIENTED_EDGE('',*,*,#315,.F.);
#249=CARTESIAN_POINT('',(0.0,12.4616533165716,0.0));
#250=DIRECTION('',(-0.0,1.0,-0.0));
#251=DIRECTION('',(1.0,0.0,0.0));
#252=SURFACE_STYLE_FILL_AREA(#316);
#253=ORIENTED_EDGE('',*,*,#317,.F.);
#254=ORIENTED_EDGE('',*,*,#318,.F.);
#255=ORIENTED_EDGE('',*,*,#319,.F.);
#256=ORIENTED_EDGE('',*,*,#313,.F.);
#257=CARTESIAN_POINT('',(0.0,4.5,0.0));
#258=DIRECTION('',(-0.0,1.0,0.0));
#259=DIRECTION('',(1.0,0.0,0.0));
#260=SURFACE_STYLE_FILL_AREA(#320);
#261=ORIENTED_EDGE('',*,*,#317,.T.);
#262=ORIENTED_EDGE('',*,*,#321,.F.);
#263=ORIENTED_EDGE('',*,*,#319,.T.);
#264=ORIENTED_EDGE('',*,*,#322,.F.);
#265=CARTESIAN_POINT('',(0.0,4.5,0.0));
#266=DIRECTION('',(-0.0,1.0,0.0));
#267=DIRECTION('',(1.0,0.0,0.0));
#268=SURFACE_STYLE_FILL_AREA(#323);
#269=ORIENTED_EDGE('',*,*,#322,.T.);
#270=ORIENTED_EDGE('',*,*,#318,.T.);
#271=CARTESIAN_POINT('',(0.0,0.0,0.0));
#272=DIRECTION('',(0.0,-1.0,0.0));
#273=DIRECTION('',(-1.0,0.0,0.0));
#274=SURFACE_STYLE_FILL_AREA(#324);
#275=ORIENTED_EDGE('',*,*,#312,.T.);
#276=ORIENTED_EDGE('',*,*,#325,.F.);
#277=ORIENTED_EDGE('',*,*,#314,.T.);
#278=ORIENTED_EDGE('',*,*,#321,.T.);
#279=CARTESIAN_POINT('',(0.0,12.4616533165716,0.0));
#280=DIRECTION('',(-0.0,1.0,-0.0));
#281=DIRECTION('',(1.0,0.0,0.0));
#282=SURFACE_STYLE_FILL_AREA(#326);
#283=ORIENTED_EDGE('',*,*,#309,.T.);
#284=ORIENTED_EDGE('',*,*,#310,.T.);
#285=ORIENTED_EDGE('',*,*,#315,.T.);
#286=ORIENTED_EDGE('',*,*,#325,.T.);
#287=CARTESIAN_POINT('',(0.0,16.3,0.0));
#288=DIRECTION('',(0.0,0.0,1.0));
#289=DIRECTION('',(1.0,0.0,0.0));
#290=FILL_AREA_STYLE('',(#327));
#291=EDGE_CURVE('',#328,#329,#330,.T.);
#292=EDGE_CURVE('',#331,#328,#332,.T.);
#293=EDGE_CURVE('',#333,#331,#334,.T.);
#294=EDGE_CURVE('',#329,#333,#335,.T.);
#295=FILL_AREA_STYLE('',(#336));
#296=EDGE_CURVE('',#337,#338,#339,.T.);
#297=EDGE_CURVE('',#340,#337,#341,.T.);
#298=EDGE_CURVE('',#342,#340,#343,.T.);
#299=EDGE_CURVE('',#338,#342,#344,.T.);
#300=FILL_AREA_STYLE('',(#345));
#301=EDGE_CURVE('',#342,#338,#346,.T.);
#302=EDGE_CURVE('',#337,#340,#347,.T.);
#303=FILL_AREA_STYLE('',(#348));
#304=EDGE_CURVE('',#333,#329,#349,.T.);
#305=EDGE_CURVE('',#328,#331,#350,.T.);
#306=FILL_AREA_STYLE('',(#351));
#307=FILL_AREA_STYLE('',(#352));
#308=FILL_AREA_STYLE('',(#353));
#309=EDGE_CURVE('',#354,#355,#356,.T.);
#310=EDGE_CURVE('',#355,#354,#357,.T.);
#311=FILL_AREA_STYLE('',(#358));
#312=EDGE_CURVE('',#359,#360,#361,.T.);
#313=EDGE_CURVE('',#359,#362,#363,.T.);
#314=EDGE_CURVE('',#364,#362,#365,.T.);
#315=EDGE_CURVE('',#360,#364,#366,.T.);
#316=FILL_AREA_STYLE('',(#367));
#317=EDGE_CURVE('',#368,#359,#369,.T.);
#318=EDGE_CURVE('',#370,#368,#371,.T.);
#319=EDGE_CURVE('',#362,#370,#372,.T.);
#320=FILL_AREA_STYLE('',(#373));
#321=EDGE_CURVE('',#362,#359,#374,.T.);
#322=EDGE_CURVE('',#368,#370,#375,.T.);
#323=FILL_AREA_STYLE('',(#376));
#324=FILL_AREA_STYLE('',(#377));
#325=EDGE_CURVE('',#364,#360,#378,.T.);
#326=FILL_AREA_STYLE('',(#379));
#327=FILL_AREA_STYLE_COLOUR('',#380);
#328=VERTEX_POINT('',#381);
#329=VERTEX_POINT('',#382);
#330=LINE('',#383,#384);
#331=VERTEX_POINT('',#385);
#332=CIRCLE('',#386,5.0);
#333=VERTEX_POINT('',#387);
#334=LINE('',#388,#389);
#335=CIRCLE('',#390,5.0);
#336=FILL_AREA_STYLE_COLOUR('',#391);
#337=VERTEX_POINT('',#392);
#338=VERTEX_POINT('',#393);
#339=LINE('',#394,#395);
#340=VERTEX_POINT('',#396);
#341=CIRCLE('',#397,2.1);
#342=VERTEX_POINT('',#398);
#343=LINE('',#399,#400);
#344=CIRCLE('',#401,2.1);
#345=FILL_AREA_STYLE_COLOUR('',#402);
#346=CIRCLE('',#403,2.1);
#347=CIRCLE('',#404,2.1);
#348=FILL_AREA_STYLE_COLOUR('',#405);
#349=CIRCLE('',#406,5.0);
#350=CIRCLE('',#407,5.0);
#351=FILL_AREA_STYLE_COLOUR('',#408);
#352=FILL_AREA_STYLE_COLOUR('',#409);
#353=FILL_AREA_STYLE_COLOUR('',#410);
#354=VERTEX_POINT('',#411);
#355=VERTEX_POINT('',#412);
#356=CIRCLE('',#413,3.0);
#357=CIRCLE('',#414,3.0);
#358=FILL_AREA_STYLE_COLOUR('',#415);
#359=VERTEX_POINT('',#416);
#360=VERTEX_POINT('',#417);
#361=LINE('',#418,#419);
#362=VERTEX_POINT('',#420);
#363=CIRCLE('',#421,2.1);
#364=VERTEX_POINT('',#422);
#365=LINE('',#423,#424);
#366=CIRCLE('',#425,2.97625639140282);
#367=FILL_AREA_STYLE_COLOUR('',#426);
#368=VERTEX_POINT('',#427);
#369=LINE('',#428,#429);
#370=VERTEX_POINT('',#430);
#371=CIRCLE('',#431,2.1);
#372=LINE('',#432,#433);
#373=FILL_AREA_STYLE_COLOUR('',#434);
#374=CIRCLE('',#435,2.1);
#375=CIRCLE('',#436,2.1);
#376=FILL_AREA_STYLE_COLOUR('',#437);
#377=FILL_AREA_STYLE_COLOUR('',#438);
#378=CIRCLE('',#439,2.97625639140282);
#379=FILL_AREA_STYLE_COLOUR('',#440);
#380=COLOUR_RGB('',0.752941191196442,0.752941191196442,0.752941191196442);
#381=CARTESIAN_POINT('',(5.0,0.0,0.0));
#382=CARTESIAN_POINT('',(5.0,9.0,0.0));
#383=CARTESIAN_POINT('',(5.0,4.5,6.12303176911189E-016));
#384=VECTOR('',#441,1.0);
#385=CARTESIAN_POINT('',(-5.0,0.0,-6.12303176911189E-016));
#386=AXIS2_PLACEMENT_3D('',#442,#443,#444);
#387=CARTESIAN_POINT('',(-5.0,9.0,-6.12303176911189E-016));
#388=CARTESIAN_POINT('',(-5.0,4.5,-6.12303176911189E-016));
#389=VECTOR('',#445,1.0);
#390=AXIS2_PLACEMENT_3D('',#446,#447,#448);
#391=COLOUR_RGB('',0.752941191196442,0.752941191196442,0.752941191196442);
#392=CARTESIAN_POINT('',(2.1,9.0,2.57167334302699E-016));
#393=CARTESIAN_POINT('',(2.1,0.0,2.57167334302699E-016));
#394=CARTESIAN_POINT('',(2.1,4.5,2.57167334302699E-016));
#395=VECTOR('',#449,1.0);
#396=CARTESIAN_POINT('',(-2.1,9.0,-2.57167334302699E-016));
#397=AXIS2_PLACEMENT_3D('',#450,#451,#452);
#398=CARTESIAN_POINT('',(-2.1,0.0,2.57167334302699E-016));
#399=CARTESIAN_POINT('',(-2.1,4.5,-2.57167334302699E-016));
#400=VECTOR('',#453,1.0);
#401=AXIS2_PLACEMENT_3D('',#454,#455,#456);
#402=COLOUR_RGB('',0.752941191196442,0.752941191196442,0.752941191196442);
#403=AXIS2_PLACEMENT_3D('',#457,#458,#459);
#404=AXIS2_PLACEMENT_3D('',#460,#461,#462);
#405=COLOUR_RGB('',0.752941191196442,0.752941191196442,0.752941191196442);
#406=AXIS2_PLACEMENT_3D('',#463,#464,#465);
#407=AXIS2_PLACEMENT_3D('',#466,#467,#468);
#408=COLOUR_RGB('',0.752941191196442,0.752941191196442,0.752941191196442);
#409=COLOUR_RGB('',0.752941191196442,0.752941191196442,0.752941191196442);
#410=COLOUR_RGB('',0.752941191196442,0.752941191196442,0.752941191196442);
#411=CARTESIAN_POINT('',(3.67381906146713E-016,16.3,-3.0));
#412=CARTESIAN_POINT('',(0.0,16.3,3.0));
#413=AXIS2_PLACEMENT_3D('',#469,#470,#471);
#414=AXIS2_PLACEMENT_3D('',#472,#473,#474);
#415=COLOUR_RGB('',0.752941191196442,0.752941191196442,0.752941191196442);
#416=CARTESIAN_POINT('',(2.1,9.0,0.0));
#417=CARTESIAN_POINT('',(2.97625639140282,15.9233066331433,0.0));
#418=CARTESIAN_POINT('',(2.53812819570141,12.4616533165716,3.10820791527167E-016));
#419=VECTOR('',#475,1.0);
#420=CARTESIAN_POINT('',(-2.1,9.0,-2.57167334302699E-016));
#421=AXIS2_PLACEMENT_3D('',#476,#477,#478);
#422=CARTESIAN_POINT('',(-2.97625639140282,15.9233066331433,-3.64474248751636E-016));
#423=CARTESIAN_POINT('',(-2.53812819570141,12.4616533165716,-3.10820791527167E-016));
#424=VECTOR('',#479,1.0);
#425=AXIS2_PLACEMENT_3D('',#480,#481,#482);
#426=COLOUR_RGB('',0.752941191196442,0.752941191196442,0.752941191196442);
#427=CARTESIAN_POINT('',(2.1,0.0,0.0));
#428=CARTESIAN_POINT('',(2.1,4.5,2.57167334302699E-016));
#429=VECTOR('',#483,1.0);
#430=CARTESIAN_POINT('',(-2.1,0.0,-2.57167334302699E-016));
#431=AXIS2_PLACEMENT_3D('',#484,#485,#486);
#432=CARTESIAN_POINT('',(-2.1,4.5,-2.57167334302699E-016));
#433=VECTOR('',#487,1.0);
#434=COLOUR_RGB('',0.752941191196442,0.752941191196442,0.752941191196442);
#435=AXIS2_PLACEMENT_3D('',#488,#489,#490);
#436=AXIS2_PLACEMENT_3D('',#491,#492,#493);
#437=COLOUR_RGB('',0.752941191196442,0.752941191196442,0.752941191196442);
#438=COLOUR_RGB('',0.752941191196442,0.752941191196442,0.752941191196442);
#439=AXIS2_PLACEMENT_3D('',#494,#495,#496);
#440=COLOUR_RGB('',0.752941191196442,0.752941191196442,0.752941191196442);
#441=DIRECTION('',(0.0,1.0,0.0));
#442=CARTESIAN_POINT('',(0.0,0.0,0.0));
#443=DIRECTION('',(0.0,-1.0,0.0));
#444=DIRECTION('',(1.0,0.0,0.0));
#445=DIRECTION('',(-0.0,-1.0,-0.0));
#446=CARTESIAN_POINT('',(0.0,9.0,0.0));
#447=DIRECTION('',(-0.0,1.0,0.0));
#448=DIRECTION('',(1.0,0.0,0.0));
#449=DIRECTION('',(-0.0,-1.0,-0.0));
#450=CARTESIAN_POINT('',(0.0,9.0,0.0));
#451=DIRECTION('',(0.0,-1.0,0.0));
#452=DIRECTION('',(1.0,0.0,0.0));
#453=DIRECTION('',(-0.0,1.0,-0.0));
#454=CARTESIAN_POINT('',(0.0,0.0,0.0));
#455=DIRECTION('',(-0.0,1.0,0.0));
#456=DIRECTION('',(1.0,0.0,0.0));
#457=CARTESIAN_POINT('',(0.0,0.0,0.0));
#458=DIRECTION('',(-0.0,1.0,0.0));
#459=DIRECTION('',(1.0,0.0,0.0));
#460=CARTESIAN_POINT('',(0.0,9.0,0.0));
#461=DIRECTION('',(0.0,-1.0,0.0));
#462=DIRECTION('',(1.0,0.0,0.0));
#463=CARTESIAN_POINT('',(0.0,9.0,0.0));
#464=DIRECTION('',(-0.0,1.0,0.0));
#465=DIRECTION('',(1.0,0.0,0.0));
#466=CARTESIAN_POINT('',(0.0,0.0,0.0));
#467=DIRECTION('',(0.0,-1.0,0.0));
#468=DIRECTION('',(1.0,0.0,0.0));
#469=CARTESIAN_POINT('',(0.0,16.3,0.0));
#470=DIRECTION('',(0.0,-1.0,0.0));
#471=DIRECTION('',(0.0,0.0,1.0));
#472=CARTESIAN_POINT('',(0.0,16.3,0.0));
#473=DIRECTION('',(0.0,-1.0,0.0));
#474=DIRECTION('',(0.0,0.0,1.0));
#475=DIRECTION('',(0.125564455618908,0.992085463800941,1.53767030165162E-017));
#476=CARTESIAN_POINT('',(0.0,9.0,0.0));
#477=DIRECTION('',(-0.0,1.0,0.0));
#478=DIRECTION('',(1.0,0.0,0.0));
#479=DIRECTION('',(0.125564455618908,-0.992085463800941,1.53767030165162E-017));
#480=CARTESIAN_POINT('',(0.0,15.9233066331433,0.0));
#481=DIRECTION('',(-0.0,1.0,0.0));
#482=DIRECTION('',(1.0,0.0,0.0));
#483=DIRECTION('',(0.0,1.0,0.0));
#484=CARTESIAN_POINT('',(0.0,0.0,0.0));
#485=DIRECTION('',(0.0,-1.0,0.0));
#486=DIRECTION('',(1.0,0.0,0.0));
#487=DIRECTION('',(-0.0,-1.0,-0.0));
#488=CARTESIAN_POINT('',(0.0,9.0,0.0));
#489=DIRECTION('',(-0.0,1.0,0.0));
#490=DIRECTION('',(1.0,0.0,0.0));
#491=CARTESIAN_POINT('',(0.0,0.0,0.0));
#492=DIRECTION('',(0.0,-1.0,0.0));
#493=DIRECTION('',(1.0,0.0,0.0));
#494=CARTESIAN_POINT('',(0.0,15.9233066331433,0.0));
#495=DIRECTION('',(-0.0,1.0,0.0));
#496=DIRECTION('',(1.0,0.0,0.0));
ENDSEC;
END-ISO-10303-21;
