ISO-10303-21;
HEADER;
FILE_DESCRIPTION(('STEP AP214'),'1');
FILE_NAME(' ','  ',('TraceParts'),('TraceParts S.A.'),'XStep 1.0',' ',' ');
FILE_SCHEMA(('automotive_design'));
ENDSEC;
DATA;
#1=MECHANICAL_DESIGN_GEOMETRIC_PRESENTATION_REPRESENTATION(' ',(#10,#11,#12,#13,#14,#15,#16,#17,#18,#19,#20,#21,#22,#23,#24,#25,#26,#27,#28,#29,#30,#31,#32,#33,#34,#35,#36,#37,#38,#39,#40,#41,#42,#43,#44,#45,#46,#47,#48,#49,#50,#51,#52,#53,#54,#55,#56,#57),#6);
#2=PRODUCT_DEFINITION_CONTEXT('',#58,'design');
#3=APPLICATION_PROTOCOL_DEFINITION('INTERNATIONAL STANDARD','automotive_design',1994,#58);
#4=PRODUCT_CATEGORY_RELATIONSHIP('NONE','NONE',#59,#60);
#5=SHAPE_DEFINITION_REPRESENTATION(#61,#62);
#6= (GEOMETRIC_REPRESENTATION_CONTEXT(3)GLOBAL_UNCERTAINTY_ASSIGNED_CONTEXT((#65))GLOBAL_UNIT_ASSIGNED_CONTEXT((#67,#68,#69))REPRESENTATION_CONTEXT('NONE','WORKSPACE'));
#10=STYLED_ITEM('',(#71),#72);
#11=STYLED_ITEM('',(#73),#74);
#12=STYLED_ITEM('',(#75),#76);
#13=STYLED_ITEM('',(#77),#78);
#14=STYLED_ITEM('',(#79),#80);
#15=STYLED_ITEM('',(#81),#82);
#16=STYLED_ITEM('',(#83),#84);
#17=STYLED_ITEM('',(#85),#86);
#18=STYLED_ITEM('',(#87),#88);
#19=STYLED_ITEM('',(#89),#90);
#20=STYLED_ITEM('',(#91),#92);
#21=STYLED_ITEM('',(#93),#94);
#22=STYLED_ITEM('',(#95),#96);
#23=STYLED_ITEM('',(#97),#98);
#24=STYLED_ITEM('',(#99),#100);
#25=STYLED_ITEM('',(#101),#102);
#26=STYLED_ITEM('',(#103),#104);
#27=STYLED_ITEM('',(#105),#106);
#28=STYLED_ITEM('',(#107),#108);
#29=STYLED_ITEM('',(#109),#110);
#30=STYLED_ITEM('',(#111),#112);
#31=STYLED_ITEM('',(#113),#114);
#32=STYLED_ITEM('',(#115),#116);
#33=STYLED_ITEM('',(#117),#118);
#34=STYLED_ITEM('',(#119),#120);
#35=STYLED_ITEM('',(#121),#122);
#36=STYLED_ITEM('',(#123),#124);
#37=STYLED_ITEM('',(#125),#126);
#38=STYLED_ITEM('',(#127),#128);
#39=STYLED_ITEM('',(#129),#130);
#40=STYLED_ITEM('',(#131),#132);
#41=STYLED_ITEM('',(#133),#134);
#42=STYLED_ITEM('',(#135),#136);
#43=STYLED_ITEM('',(#137),#138);
#44=STYLED_ITEM('',(#139),#140);
#45=STYLED_ITEM('',(#141),#142);
#46=STYLED_ITEM('',(#143),#144);
#47=STYLED_ITEM('',(#145),#146);
#48=STYLED_ITEM('',(#147),#148);
#49=STYLED_ITEM('',(#149),#150);
#50=STYLED_ITEM('',(#151),#152);
#51=STYLED_ITEM('',(#153),#154);
#52=STYLED_ITEM('',(#155),#156);
#53=STYLED_ITEM('',(#157),#158);
#54=STYLED_ITEM('',(#159),#160);
#55=STYLED_ITEM('',(#161),#162);
#56=STYLED_ITEM('',(#163),#164);
#57=STYLED_ITEM('',(#165),#166);
#58=APPLICATION_CONTEXT(' ');
#59=PRODUCT_CATEGORY('part','NONE');
#60=PRODUCT_RELATED_PRODUCT_CATEGORY('detail',' ',(#167));
#61=PRODUCT_DEFINITION_SHAPE('NONE','NONE',#168);
#62=ADVANCED_BREP_SHAPE_REPRESENTATION('1',(#82,#169),#6);
#65=UNCERTAINTY_MEASURE_WITH_UNIT(LENGTH_MEASURE(1.0E-006),#67,'','');
#67= (CONVERSION_BASED_UNIT('MILLIMETRE',#172)LENGTH_UNIT()NAMED_UNIT(#175));
#68= (NAMED_UNIT(#177)PLANE_ANGLE_UNIT()SI_UNIT($,.RADIAN.));
#69= (NAMED_UNIT(#177)SOLID_ANGLE_UNIT()SI_UNIT($,.STERADIAN.));
#71=PRESENTATION_STYLE_ASSIGNMENT((#183));
#72=VERTEX_POINT('',#184);
#73=PRESENTATION_STYLE_ASSIGNMENT((#185));
#74=EDGE_CURVE('',#72,#102,#186,.T.);
#75=PRESENTATION_STYLE_ASSIGNMENT((#187));
#76=VERTEX_POINT('',#188);
#77=PRESENTATION_STYLE_ASSIGNMENT((#189));
#78=VERTEX_POINT('',#190);
#79=PRESENTATION_STYLE_ASSIGNMENT((#191));
#80=EDGE_CURVE('',#110,#84,#192,.T.);
#81=PRESENTATION_STYLE_ASSIGNMENT((#193));
#82=MANIFOLD_SOLID_BREP('1',#194);
#83=PRESENTATION_STYLE_ASSIGNMENT((#195));
#84=VERTEX_POINT('',#196);
#85=PRESENTATION_STYLE_ASSIGNMENT((#197));
#86=EDGE_CURVE('',#110,#166,#198,.T.);
#87=PRESENTATION_STYLE_ASSIGNMENT((#199));
#88=EDGE_CURVE('',#116,#120,#200,.T.);
#89=PRESENTATION_STYLE_ASSIGNMENT((#201));
#90=EDGE_CURVE('',#166,#150,#202,.T.);
#91=PRESENTATION_STYLE_ASSIGNMENT((#203));
#92=EDGE_CURVE('',#160,#156,#204,.T.);
#93=PRESENTATION_STYLE_ASSIGNMENT((#205));
#94=ADVANCED_FACE('',(#206),#207,.T.);
#95=PRESENTATION_STYLE_ASSIGNMENT((#208));
#96=EDGE_CURVE('',#116,#156,#209,.T.);
#97=PRESENTATION_STYLE_ASSIGNMENT((#210));
#98=EDGE_CURVE('',#84,#110,#211,.T.);
#99=PRESENTATION_STYLE_ASSIGNMENT((#212));
#100=ADVANCED_FACE('',(#213),#214,.T.);
#101=PRESENTATION_STYLE_ASSIGNMENT((#215));
#102=VERTEX_POINT('',#216);
#103=PRESENTATION_STYLE_ASSIGNMENT((#217));
#104=EDGE_CURVE('',#120,#160,#218,.T.);
#105=PRESENTATION_STYLE_ASSIGNMENT((#219));
#106=EDGE_CURVE('',#156,#116,#220,.T.);
#107=PRESENTATION_STYLE_ASSIGNMENT((#221));
#108=ADVANCED_FACE('',(#222,#223),#224,.T.);
#109=PRESENTATION_STYLE_ASSIGNMENT((#225));
#110=VERTEX_POINT('',#226);
#111=PRESENTATION_STYLE_ASSIGNMENT((#227));
#112=ADVANCED_FACE('',(#228),#229,.T.);
#113=PRESENTATION_STYLE_ASSIGNMENT((#230));
#114=EDGE_CURVE('',#150,#84,#231,.T.);
#115=PRESENTATION_STYLE_ASSIGNMENT((#232));
#116=VERTEX_POINT('',#233);
#117=PRESENTATION_STYLE_ASSIGNMENT((#234));
#118=EDGE_CURVE('',#76,#162,#235,.T.);
#119=PRESENTATION_STYLE_ASSIGNMENT((#236));
#120=VERTEX_POINT('',#237);
#121=PRESENTATION_STYLE_ASSIGNMENT((#238));
#122=EDGE_CURVE('',#146,#102,#239,.T.);
#123=PRESENTATION_STYLE_ASSIGNMENT((#240));
#124=EDGE_CURVE('',#78,#72,#241,.T.);
#125=PRESENTATION_STYLE_ASSIGNMENT((#242));
#126=ADVANCED_FACE('',(#243),#244,.T.);
#127=PRESENTATION_STYLE_ASSIGNMENT((#245));
#128=ADVANCED_FACE('',(#246),#247,.F.);
#129=PRESENTATION_STYLE_ASSIGNMENT((#248));
#130=ADVANCED_FACE('',(#249,#250),#251,.T.);
#131=PRESENTATION_STYLE_ASSIGNMENT((#252));
#132=ADVANCED_FACE('',(#253),#254,.T.);
#133=PRESENTATION_STYLE_ASSIGNMENT((#255));
#134=EDGE_CURVE('',#84,#162,#256,.T.);
#135=PRESENTATION_STYLE_ASSIGNMENT((#257));
#136=ADVANCED_FACE('',(#258,#259),#260,.T.);
#137=PRESENTATION_STYLE_ASSIGNMENT((#261));
#138=EDGE_CURVE('',#76,#110,#262,.T.);
#139=PRESENTATION_STYLE_ASSIGNMENT((#263));
#140=EDGE_CURVE('',#162,#76,#264,.T.);
#141=PRESENTATION_STYLE_ASSIGNMENT((#265));
#142=EDGE_CURVE('',#150,#166,#266,.T.);
#143=PRESENTATION_STYLE_ASSIGNMENT((#267));
#144=EDGE_CURVE('',#146,#78,#268,.T.);
#145=PRESENTATION_STYLE_ASSIGNMENT((#269));
#146=VERTEX_POINT('',#270);
#147=PRESENTATION_STYLE_ASSIGNMENT((#271));
#148=EDGE_CURVE('',#102,#146,#272,.T.);
#149=PRESENTATION_STYLE_ASSIGNMENT((#273));
#150=VERTEX_POINT('',#274);
#151=PRESENTATION_STYLE_ASSIGNMENT((#275));
#152=EDGE_CURVE('',#72,#78,#276,.T.);
#153=PRESENTATION_STYLE_ASSIGNMENT((#277));
#154=EDGE_CURVE('',#160,#120,#278,.T.);
#155=PRESENTATION_STYLE_ASSIGNMENT((#279));
#156=VERTEX_POINT('',#280);
#157=PRESENTATION_STYLE_ASSIGNMENT((#281));
#158=ADVANCED_FACE('',(#282),#283,.F.);
#159=PRESENTATION_STYLE_ASSIGNMENT((#284));
#160=VERTEX_POINT('',#285);
#161=PRESENTATION_STYLE_ASSIGNMENT((#286));
#162=VERTEX_POINT('',#287);
#163=PRESENTATION_STYLE_ASSIGNMENT((#288));
#164=ADVANCED_FACE('',(#289),#290,.T.);
#165=PRESENTATION_STYLE_ASSIGNMENT((#291));
#166=VERTEX_POINT('',#292);
#167=PRODUCT('1','1','PART-1-DESC',(#293));
#168=PRODUCT_DEFINITION('NONE','NONE',#294,#2);
#169=AXIS2_PLACEMENT_3D('',#295,#296,#297);
#172=LENGTH_MEASURE_WITH_UNIT(LENGTH_MEASURE(1.0),#298);
#175=DIMENSIONAL_EXPONENTS(1.0,0.0,0.0,0.0,0.0,0.0,0.0);
#177=DIMENSIONAL_EXPONENTS(0.0,0.0,0.0,0.0,0.0,0.0,0.0);
#183=POINT_STYLE(' ',#299,POSITIVE_LENGTH_MEASURE(1.0E-006),#300);
#184=CARTESIAN_POINT('',(19.0,5.45546556127909E-015,-2.8421709430404E-014));
#185=CURVE_STYLE('',#301,POSITIVE_LENGTH_MEASURE(1.0E-006),#302);
#186=LINE('',#303,#304);
#187=POINT_STYLE(' ',#305,POSITIVE_LENGTH_MEASURE(1.0E-006),#306);
#188=CARTESIAN_POINT('',(-21.0,-1.64740191747221E-015,-2.8421709430404E-014));
#189=POINT_STYLE(' ',#307,POSITIVE_LENGTH_MEASURE(1.0E-006),#308);
#190=CARTESIAN_POINT('',(-18.9999999999999,-1.17503940703771E-015,-2.8421709430404E-014));
#191=CURVE_STYLE('',#309,POSITIVE_LENGTH_MEASURE(1.0E-006),#310);
#192=CIRCLE('',#311,21.0);
#193=SURFACE_STYLE_USAGE(.BOTH.,#312);
#194=CLOSED_SHELL('',(#100,#94,#158,#112,#136,#126,#108,#128,#130,#164,#132));
#195=POINT_STYLE(' ',#313,POSITIVE_LENGTH_MEASURE(1.0E-006),#314);
#196=CARTESIAN_POINT('',(21.0,5.82284746742581E-015,1.99999999999997));
#197=CURVE_STYLE('',#315,POSITIVE_LENGTH_MEASURE(1.0E-006),#316);
#198=LINE('',#317,#318);
#199=CURVE_STYLE('',#319,POSITIVE_LENGTH_MEASURE(1.0E-006),#320);
#200=LINE('',#321,#322);
#201=CURVE_STYLE('',#323,POSITIVE_LENGTH_MEASURE(1.0E-006),#324);
#202=CIRCLE('',#325,20.0);
#203=CURVE_STYLE('',#326,POSITIVE_LENGTH_MEASURE(1.0E-006),#327);
#204=LINE('',#328,#329);
#205=SURFACE_STYLE_USAGE(.BOTH.,#330);
#206=FACE_OUTER_BOUND('',#331,.T.);
#207=CONICAL_SURFACE('',#332,20.5,0.785398163397448);
#208=CURVE_STYLE('',#333,POSITIVE_LENGTH_MEASURE(1.0E-006),#334);
#209=CIRCLE('',#335,12.35145);
#210=CURVE_STYLE('',#336,POSITIVE_LENGTH_MEASURE(1.0E-006),#337);
#211=CIRCLE('',#338,21.0);
#212=SURFACE_STYLE_USAGE(.BOTH.,#339);
#213=FACE_OUTER_BOUND('',#340,.T.);
#214=CYLINDRICAL_SURFACE('',#341,21.0);
#215=POINT_STYLE(' ',#342,POSITIVE_LENGTH_MEASURE(1.0E-006),#343);
#216=CARTESIAN_POINT('',(19.0,4.47578047822119E-015,-16.0));
#217=CURVE_STYLE('',#344,POSITIVE_LENGTH_MEASURE(1.0E-006),#345);
#218=CIRCLE('',#346,9.84999999999999);
#219=CURVE_STYLE('',#347,POSITIVE_LENGTH_MEASURE(1.0E-006),#348);
#220=CIRCLE('',#349,12.35145);
#221=SURFACE_STYLE_USAGE(.BOTH.,#350);
#222=FACE_BOUND('',#351,.T.);
#223=FACE_OUTER_BOUND('',#352,.T.);
#224=PLANE('',#353);
#225=POINT_STYLE(' ',#354,POSITIVE_LENGTH_MEASURE(1.0E-006),#355);
#226=CARTESIAN_POINT('',(-21.0,-1.64740191747221E-015,1.99999999999997));
#227=SURFACE_STYLE_USAGE(.BOTH.,#356);
#228=FACE_OUTER_BOUND('',#357,.T.);
#229=CYLINDRICAL_SURFACE('',#358,19.0);
#230=CURVE_STYLE('',#359,POSITIVE_LENGTH_MEASURE(1.0E-006),#360);
#231=LINE('',#361,#362);
#232=POINT_STYLE(' ',#363,POSITIVE_LENGTH_MEASURE(1.0E-006),#364);
#233=CARTESIAN_POINT('',(12.35145,4.82497085698187E-015,2.99999999999997));
#234=CURVE_STYLE('',#365,POSITIVE_LENGTH_MEASURE(1.0E-006),#366);
#235=CIRCLE('',#367,21.0);
#236=POINT_STYLE(' ',#368,POSITIVE_LENGTH_MEASURE(1.0E-006),#369);
#237=CARTESIAN_POINT('',(9.85000000000002,3.35526566447372E-015,-16.0));
#238=CURVE_STYLE('',#370,POSITIVE_LENGTH_MEASURE(1.0E-006),#371);
#239=CIRCLE('',#372,19.0);
#240=CURVE_STYLE('',#373,POSITIVE_LENGTH_MEASURE(1.0E-006),#374);
#241=CIRCLE('',#375,19.0);
#242=SURFACE_STYLE_USAGE(.BOTH.,#376);
#243=FACE_OUTER_BOUND('',#377,.T.);
#244=CYLINDRICAL_SURFACE('',#378,19.0);
#245=SURFACE_STYLE_USAGE(.BOTH.,#379);
#246=FACE_OUTER_BOUND('',#380,.T.);
#247=CONICAL_SURFACE('',#381,11.100725,0.130902412351835);
#248=SURFACE_STYLE_USAGE(.BOTH.,#382);
#249=FACE_OUTER_BOUND('',#383,.T.);
#250=FACE_BOUND('',#384,.T.);
#251=PLANE('',#385);
#252=SURFACE_STYLE_USAGE(.BOTH.,#386);
#253=FACE_OUTER_BOUND('',#387,.T.);
#254=CYLINDRICAL_SURFACE('',#388,21.0);
#255=CURVE_STYLE('',#389,POSITIVE_LENGTH_MEASURE(1.0E-006),#390);
#256=LINE('',#391,#392);
#257=SURFACE_STYLE_USAGE(.BOTH.,#393);
#258=FACE_BOUND('',#394,.T.);
#259=FACE_OUTER_BOUND('',#395,.T.);
#260=PLANE('',#396);
#261=CURVE_STYLE('',#397,POSITIVE_LENGTH_MEASURE(1.0E-006),#398);
#262=LINE('',#399,#400);
#263=CURVE_STYLE('',#401,POSITIVE_LENGTH_MEASURE(1.0E-006),#402);
#264=CIRCLE('',#403,21.0);
#265=CURVE_STYLE('',#404,POSITIVE_LENGTH_MEASURE(1.0E-006),#405);
#266=CIRCLE('',#406,20.0);
#267=CURVE_STYLE('',#407,POSITIVE_LENGTH_MEASURE(1.0E-006),#408);
#268=LINE('',#409,#410);
#269=POINT_STYLE(' ',#411,POSITIVE_LENGTH_MEASURE(1.0E-006),#412);
#270=CARTESIAN_POINT('',(-18.9999999999999,-1.17503940703771E-015,-16.0));
#271=CURVE_STYLE('',#413,POSITIVE_LENGTH_MEASURE(1.0E-006),#414);
#272=CIRCLE('',#415,19.0);
#273=POINT_STYLE(' ',#416,POSITIVE_LENGTH_MEASURE(1.0E-006),#417);
#274=CARTESIAN_POINT('',(20.0,5.76161714973469E-015,2.99999999999997));
#275=CURVE_STYLE('',#418,POSITIVE_LENGTH_MEASURE(1.0E-006),#419);
#276=CIRCLE('',#420,19.0);
#277=CURVE_STYLE('',#421,POSITIVE_LENGTH_MEASURE(1.0E-006),#422);
#278=CIRCLE('',#423,9.84999999999999);
#279=POINT_STYLE(' ',#424,POSITIVE_LENGTH_MEASURE(1.0E-006),#425);
#280=CARTESIAN_POINT('',(-12.3514499999999,3.952234773369E-016,2.99999999999997));
#281=SURFACE_STYLE_USAGE(.BOTH.,#426);
#282=FACE_OUTER_BOUND('',#427,.T.);
#283=CONICAL_SURFACE('',#428,11.100725,0.130902412351835);
#284=POINT_STYLE(' ',#429,POSITIVE_LENGTH_MEASURE(1.0E-006),#430);
#285=CARTESIAN_POINT('',(-9.84999999999997,9.86019078200073E-016,-16.0));
#286=POINT_STYLE(' ',#431,POSITIVE_LENGTH_MEASURE(1.0E-006),#432);
#287=CARTESIAN_POINT('',(21.0,5.70038683204357E-015,-2.8421709430404E-014));
#288=SURFACE_STYLE_USAGE(.BOTH.,#433);
#289=FACE_OUTER_BOUND('',#434,.T.);
#290=CONICAL_SURFACE('',#435,20.5,0.785398163397448);
#291=POINT_STYLE(' ',#436,POSITIVE_LENGTH_MEASURE(1.0E-006),#437);
#292=CARTESIAN_POINT('',(-20.0,-1.41122066225497E-015,2.99999999999997));
#293=PRODUCT_CONTEXT('',#58,'mechanical');
#294=PRODUCT_DEFINITION_FORMATION_WITH_SPECIFIED_SOURCE(' ','NONE',#167,.NOT_KNOWN.);
#295=CARTESIAN_POINT('',(0.0,0.0,0.0));
#296=DIRECTION('',(0.0,0.0,1.0));
#297=DIRECTION('',(1.0,0.0,0.0));
#298= (NAMED_UNIT(#175)LENGTH_UNIT()SI_UNIT(.MILLI.,.METRE.));
#299=PRE_DEFINED_MARKER('');
#300=COLOUR_RGB('',0.509803950786591,0.509803950786591,0.588235318660736);
#301=DRAUGHTING_PRE_DEFINED_CURVE_FONT('continuous');
#302=COLOUR_RGB('',0.509803950786591,0.509803950786591,0.588235318660736);
#303=CARTESIAN_POINT('',(19.0,7.79984829121759E-015,-8.00000000000003));
#304=VECTOR('',#439,1.0);
#305=PRE_DEFINED_MARKER('');
#306=COLOUR_RGB('',0.509803950786591,0.509803950786591,0.588235318660736);
#307=PRE_DEFINED_MARKER('');
#308=COLOUR_RGB('',0.509803950786591,0.509803950786591,0.588235318660736);
#309=DRAUGHTING_PRE_DEFINED_CURVE_FONT('continuous');
#310=COLOUR_RGB('',0.509803950786591,0.509803950786591,0.588235318660736);
#311=AXIS2_PLACEMENT_3D('',#440,#441,#442);
#312=SURFACE_SIDE_STYLE('',(#443));
#313=PRE_DEFINED_MARKER('');
#314=COLOUR_RGB('',0.509803950786591,0.509803950786591,0.588235318660736);
#315=DRAUGHTING_PRE_DEFINED_CURVE_FONT('continuous');
#316=COLOUR_RGB('',0.509803950786591,0.509803950786591,0.588235318660736);
#317=CARTESIAN_POINT('',(-20.5,-1.52931128986359E-015,2.49999999999997));
#318=VECTOR('',#444,1.0);
#319=DRAUGHTING_PRE_DEFINED_CURVE_FONT('continuous');
#320=COLOUR_RGB('',0.509803950786591,0.509803950786591,0.588235318660736);
#321=CARTESIAN_POINT('',(11.100725,5.93418760641139E-015,-6.50000000000003));
#322=VECTOR('',#445,1.0);
#323=DRAUGHTING_PRE_DEFINED_CURVE_FONT('continuous');
#324=COLOUR_RGB('',0.509803950786591,0.509803950786591,0.588235318660736);
#325=AXIS2_PLACEMENT_3D('',#446,#447,#448);
#326=DRAUGHTING_PRE_DEFINED_CURVE_FONT('continuous');
#327=COLOUR_RGB('',0.509803950786591,0.509803950786591,0.588235318660736);
#328=CARTESIAN_POINT('',(-11.100725,6.90621277768487E-016,-6.50000000000003));
#329=VECTOR('',#449,1.0);
#330=SURFACE_SIDE_STYLE('',(#450));
#331=EDGE_LOOP('',(#451,#452,#453,#454));
#332=AXIS2_PLACEMENT_3D('',#455,#456,#457);
#333=DRAUGHTING_PRE_DEFINED_CURVE_FONT('continuous');
#334=COLOUR_RGB('',0.509803950786591,0.509803950786591,0.588235318660736);
#335=AXIS2_PLACEMENT_3D('',#458,#459,#460);
#336=DRAUGHTING_PRE_DEFINED_CURVE_FONT('continuous');
#337=COLOUR_RGB('',0.509803950786591,0.509803950786591,0.588235318660736);
#338=AXIS2_PLACEMENT_3D('',#461,#462,#463);
#339=SURFACE_SIDE_STYLE('',(#464));
#340=EDGE_LOOP('',(#465,#466,#467,#468));
#341=AXIS2_PLACEMENT_3D('',#469,#470,#471);
#342=PRE_DEFINED_MARKER('');
#343=COLOUR_RGB('',0.509803950786591,0.509803950786591,0.588235318660736);
#344=DRAUGHTING_PRE_DEFINED_CURVE_FONT('continuous');
#345=COLOUR_RGB('',0.509803950786591,0.509803950786591,0.588235318660736);
#346=AXIS2_PLACEMENT_3D('',#472,#473,#474);
#347=DRAUGHTING_PRE_DEFINED_CURVE_FONT('continuous');
#348=COLOUR_RGB('',0.509803950786591,0.509803950786591,0.588235318660736);
#349=AXIS2_PLACEMENT_3D('',#475,#476,#477);
#350=SURFACE_SIDE_STYLE('',(#478));
#351=EDGE_LOOP('',(#479,#480));
#352=EDGE_LOOP('',(#481,#482));
#353=AXIS2_PLACEMENT_3D('',#483,#484,#485);
#354=PRE_DEFINED_MARKER('');
#355=COLOUR_RGB('',0.509803950786591,0.509803950786591,0.588235318660736);
#356=SURFACE_SIDE_STYLE('',(#486));
#357=EDGE_LOOP('',(#487,#488,#489,#490));
#358=AXIS2_PLACEMENT_3D('',#491,#492,#493);
#359=DRAUGHTING_PRE_DEFINED_CURVE_FONT('continuous');
#360=COLOUR_RGB('',0.509803950786591,0.509803950786591,0.588235318660736);
#361=CARTESIAN_POINT('',(20.5,8.15412017404346E-015,2.49999999999997));
#362=VECTOR('',#494,1.0);
#363=PRE_DEFINED_MARKER('');
#364=COLOUR_RGB('',0.509803950786591,0.509803950786591,0.588235318660736);
#365=DRAUGHTING_PRE_DEFINED_CURVE_FONT('continuous');
#366=COLOUR_RGB('',0.509803950786591,0.509803950786591,0.588235318660736);
#367=AXIS2_PLACEMENT_3D('',#495,#496,#497);
#368=PRE_DEFINED_MARKER('');
#369=COLOUR_RGB('',0.509803950786591,0.509803950786591,0.588235318660736);
#370=DRAUGHTING_PRE_DEFINED_CURVE_FONT('continuous');
#371=COLOUR_RGB('',0.509803950786591,0.509803950786591,0.588235318660736);
#372=AXIS2_PLACEMENT_3D('',#498,#499,#500);
#373=DRAUGHTING_PRE_DEFINED_CURVE_FONT('continuous');
#374=COLOUR_RGB('',0.509803950786591,0.509803950786591,0.588235318660736);
#375=AXIS2_PLACEMENT_3D('',#501,#502,#503);
#376=SURFACE_SIDE_STYLE('',(#504));
#377=EDGE_LOOP('',(#505,#506,#507,#508));
#378=AXIS2_PLACEMENT_3D('',#509,#510,#511);
#379=SURFACE_SIDE_STYLE('',(#512));
#380=EDGE_LOOP('',(#513,#514,#515,#516));
#381=AXIS2_PLACEMENT_3D('',#517,#518,#519);
#382=SURFACE_SIDE_STYLE('',(#520));
#383=EDGE_LOOP('',(#521,#522));
#384=EDGE_LOOP('',(#523,#524));
#385=AXIS2_PLACEMENT_3D('',#525,#526,#527);
#386=SURFACE_SIDE_STYLE('',(#528));
#387=EDGE_LOOP('',(#529,#530,#531,#532));
#388=AXIS2_PLACEMENT_3D('',#533,#534,#535);
#389=DRAUGHTING_PRE_DEFINED_CURVE_FONT('continuous');
#390=COLOUR_RGB('',0.509803950786591,0.509803950786591,0.588235318660736);
#391=CARTESIAN_POINT('',(21.0,8.27221080165208E-015,0.999999999999972));
#392=VECTOR('',#536,1.0);
#393=SURFACE_SIDE_STYLE('',(#537));
#394=EDGE_LOOP('',(#538,#539));
#395=EDGE_LOOP('',(#540,#541));
#396=AXIS2_PLACEMENT_3D('',#542,#543,#544);
#397=DRAUGHTING_PRE_DEFINED_CURVE_FONT('continuous');
#398=COLOUR_RGB('',0.509803950786591,0.509803950786591,0.588235318660736);
#399=CARTESIAN_POINT('',(-21.0,-1.64740191747221E-015,0.999999999999972));
#400=VECTOR('',#545,1.0);
#401=DRAUGHTING_PRE_DEFINED_CURVE_FONT('continuous');
#402=COLOUR_RGB('',0.509803950786591,0.509803950786591,0.588235318660736);
#403=AXIS2_PLACEMENT_3D('',#546,#547,#548);
#404=DRAUGHTING_PRE_DEFINED_CURVE_FONT('continuous');
#405=COLOUR_RGB('',0.509803950786591,0.509803950786591,0.588235318660736);
#406=AXIS2_PLACEMENT_3D('',#549,#550,#551);
#407=DRAUGHTING_PRE_DEFINED_CURVE_FONT('continuous');
#408=COLOUR_RGB('',0.509803950786591,0.509803950786591,0.588235318660736);
#409=CARTESIAN_POINT('',(-18.9999999999999,-1.17503940703771E-015,-8.00000000000003));
#410=VECTOR('',#552,1.0);
#411=PRE_DEFINED_MARKER('');
#412=COLOUR_RGB('',0.509803950786591,0.509803950786591,0.588235318660736);
#413=DRAUGHTING_PRE_DEFINED_CURVE_FONT('continuous');
#414=COLOUR_RGB('',0.509803950786591,0.509803950786591,0.588235318660736);
#415=AXIS2_PLACEMENT_3D('',#553,#554,#555);
#416=PRE_DEFINED_MARKER('');
#417=COLOUR_RGB('',0.509803950786591,0.509803950786591,0.588235318660736);
#418=DRAUGHTING_PRE_DEFINED_CURVE_FONT('continuous');
#419=COLOUR_RGB('',0.509803950786591,0.509803950786591,0.588235318660736);
#420=AXIS2_PLACEMENT_3D('',#556,#557,#558);
#421=DRAUGHTING_PRE_DEFINED_CURVE_FONT('continuous');
#422=COLOUR_RGB('',0.509803950786591,0.509803950786591,0.588235318660736);
#423=AXIS2_PLACEMENT_3D('',#559,#560,#561);
#424=PRE_DEFINED_MARKER('');
#425=COLOUR_RGB('',0.509803950786591,0.509803950786591,0.588235318660736);
#426=SURFACE_SIDE_STYLE('',(#562));
#427=EDGE_LOOP('',(#563,#564,#565,#566));
#428=AXIS2_PLACEMENT_3D('',#567,#568,#569);
#429=PRE_DEFINED_MARKER('');
#430=COLOUR_RGB('',0.509803950786591,0.509803950786591,0.588235318660736);
#431=PRE_DEFINED_MARKER('');
#432=COLOUR_RGB('',0.509803950786591,0.509803950786591,0.588235318660736);
#433=SURFACE_SIDE_STYLE('',(#570));
#434=EDGE_LOOP('',(#571,#572,#573,#574));
#435=AXIS2_PLACEMENT_3D('',#575,#576,#577);
#436=PRE_DEFINED_MARKER('');
#437=COLOUR_RGB('',0.509803950786591,0.509803950786591,0.588235318660736);
#439=DIRECTION('',(0.0,0.0,-1.0));
#440=CARTESIAN_POINT('',(2.8421709430404E-014,3.31240444208994E-015,1.99999999999997));
#441=DIRECTION('',(0.0,0.0,-1.0));
#442=DIRECTION('',(1.0,1.13720619835007E-016,0.0));
#443=SURFACE_STYLE_FILL_AREA(#578);
#444=DIRECTION('',(0.707106781186548,1.67005367153265E-016,0.707106781186548));
#445=DIRECTION('',(-0.130528887415093,-3.08284764718072E-017,-0.991444506540925));
#446=CARTESIAN_POINT('',(2.8421709430404E-014,3.31240444208994E-015,2.99999999999997));
#447=DIRECTION('',(0.0,0.0,-1.0));
#448=DIRECTION('',(1.0,1.13720619835007E-016,0.0));
#449=DIRECTION('',(-0.130528887415093,-3.08284764718072E-017,0.991444506540925));
#450=SURFACE_STYLE_FILL_AREA(#579);
#451=ORIENTED_EDGE('',*,*,#114,.F.);
#452=ORIENTED_EDGE('',*,*,#142,.T.);
#453=ORIENTED_EDGE('',*,*,#86,.F.);
#454=ORIENTED_EDGE('',*,*,#98,.F.);
#455=CARTESIAN_POINT('',(2.8421709430404E-014,3.31240444208994E-015,2.49999999999997));
#456=DIRECTION('',(0.0,-0.0,-1.0));
#457=DIRECTION('',(1.0,1.13720619835007E-016,0.0));
#458=CARTESIAN_POINT('',(2.8421709430404E-014,3.31240444208994E-015,2.99999999999997));
#459=DIRECTION('',(0.0,0.0,-1.0));
#460=DIRECTION('',(1.0,1.13720619835007E-016,0.0));
#461=CARTESIAN_POINT('',(2.8421709430404E-014,3.31240444208994E-015,1.99999999999997));
#462=DIRECTION('',(0.0,0.0,-1.0));
#463=DIRECTION('',(1.0,1.13720619835007E-016,0.0));
#464=SURFACE_STYLE_FILL_AREA(#580);
#465=ORIENTED_EDGE('',*,*,#134,.F.);
#466=ORIENTED_EDGE('',*,*,#98,.T.);
#467=ORIENTED_EDGE('',*,*,#138,.F.);
#468=ORIENTED_EDGE('',*,*,#140,.F.);
#469=CARTESIAN_POINT('',(2.8421709430404E-014,3.31240444208994E-015,0.999999999999972));
#470=DIRECTION('',(-0.0,-0.0,1.0));
#471=DIRECTION('',(1.0,1.13720619835007E-016,0.0));
#472=CARTESIAN_POINT('',(2.8421709430404E-014,3.31240444208994E-015,-16.0));
#473=DIRECTION('',(0.0,0.0,-1.0));
#474=DIRECTION('',(1.0,1.13720619835007E-016,0.0));
#475=CARTESIAN_POINT('',(2.8421709430404E-014,3.31240444208994E-015,2.99999999999997));
#476=DIRECTION('',(0.0,0.0,-1.0));
#477=DIRECTION('',(1.0,1.13720619835007E-016,0.0));
#478=SURFACE_STYLE_FILL_AREA(#581);
#479=ORIENTED_EDGE('',*,*,#104,.F.);
#480=ORIENTED_EDGE('',*,*,#154,.F.);
#481=ORIENTED_EDGE('',*,*,#148,.T.);
#482=ORIENTED_EDGE('',*,*,#122,.T.);
#483=CARTESIAN_POINT('',(14.425,3.91552307134746E-015,-16.0));
#484=DIRECTION('',(0.0,0.0,-1.0));
#485=DIRECTION('',(1.0,1.22460635382238E-016,0.0));
#486=SURFACE_STYLE_FILL_AREA(#582);
#487=ORIENTED_EDGE('',*,*,#74,.F.);
#488=ORIENTED_EDGE('',*,*,#152,.T.);
#489=ORIENTED_EDGE('',*,*,#144,.F.);
#490=ORIENTED_EDGE('',*,*,#148,.F.);
#491=CARTESIAN_POINT('',(2.8421709430404E-014,3.31240444208994E-015,-8.00000000000003));
#492=DIRECTION('',(-0.0,-0.0,1.0));
#493=DIRECTION('',(1.0,1.13720619835007E-016,0.0));
#494=DIRECTION('',(0.707106781186548,1.67005367153265E-016,-0.707106781186548));
#495=CARTESIAN_POINT('',(2.8421709430404E-014,3.31240444208994E-015,-2.8421709430404E-014));
#496=DIRECTION('',(0.0,0.0,-1.0));
#497=DIRECTION('',(1.0,1.13720619835007E-016,0.0));
#498=CARTESIAN_POINT('',(2.8421709430404E-014,3.31240444208994E-015,-16.0));
#499=DIRECTION('',(0.0,0.0,-1.0));
#500=DIRECTION('',(1.0,1.13720619835007E-016,0.0));
#501=CARTESIAN_POINT('',(2.8421709430404E-014,3.31240444208994E-015,-2.8421709430404E-014));
#502=DIRECTION('',(0.0,0.0,-1.0));
#503=DIRECTION('',(1.0,1.13720619835007E-016,0.0));
#504=SURFACE_STYLE_FILL_AREA(#583);
#505=ORIENTED_EDGE('',*,*,#74,.T.);
#506=ORIENTED_EDGE('',*,*,#122,.F.);
#507=ORIENTED_EDGE('',*,*,#144,.T.);
#508=ORIENTED_EDGE('',*,*,#124,.T.);
#509=CARTESIAN_POINT('',(2.8421709430404E-014,3.31240444208994E-015,-8.00000000000003));
#510=DIRECTION('',(-0.0,-0.0,1.0));
#511=DIRECTION('',(1.0,1.13720619835007E-016,0.0));
#512=SURFACE_STYLE_FILL_AREA(#584);
#513=ORIENTED_EDGE('',*,*,#88,.T.);
#514=ORIENTED_EDGE('',*,*,#104,.T.);
#515=ORIENTED_EDGE('',*,*,#92,.T.);
#516=ORIENTED_EDGE('',*,*,#96,.F.);
#517=CARTESIAN_POINT('',(2.8421709430404E-014,3.31240444208994E-015,-6.50000000000003));
#518=DIRECTION('',(-0.0,-0.0,1.0));
#519=DIRECTION('',(1.0,1.13720619835007E-016,0.0));
#520=SURFACE_STYLE_FILL_AREA(#585);
#521=ORIENTED_EDGE('',*,*,#142,.F.);
#522=ORIENTED_EDGE('',*,*,#90,.F.);
#523=ORIENTED_EDGE('',*,*,#96,.T.);
#524=ORIENTED_EDGE('',*,*,#106,.T.);
#525=CARTESIAN_POINT('',(16.175725,5.29329400335828E-015,2.99999999999997));
#526=DIRECTION('',(0.0,0.0,1.0));
#527=DIRECTION('',(-1.0,-1.22460635382238E-016,0.0));
#528=SURFACE_STYLE_FILL_AREA(#586);
#529=ORIENTED_EDGE('',*,*,#134,.T.);
#530=ORIENTED_EDGE('',*,*,#118,.F.);
#531=ORIENTED_EDGE('',*,*,#138,.T.);
#532=ORIENTED_EDGE('',*,*,#80,.T.);
#533=CARTESIAN_POINT('',(2.8421709430404E-014,3.31240444208994E-015,0.999999999999972));
#534=DIRECTION('',(-0.0,-0.0,1.0));
#535=DIRECTION('',(1.0,1.13720619835007E-016,0.0));
#536=DIRECTION('',(0.0,0.0,-1.0));
#537=SURFACE_STYLE_FILL_AREA(#587);
#538=ORIENTED_EDGE('',*,*,#152,.F.);
#539=ORIENTED_EDGE('',*,*,#124,.F.);
#540=ORIENTED_EDGE('',*,*,#140,.T.);
#541=ORIENTED_EDGE('',*,*,#118,.T.);
#542=CARTESIAN_POINT('',(20.0,5.57792619666133E-015,-2.8421709430404E-014));
#543=DIRECTION('',(0.0,0.0,-1.0));
#544=DIRECTION('',(1.0,1.22460635382238E-016,0.0));
#545=DIRECTION('',(-0.0,-0.0,1.0));
#546=CARTESIAN_POINT('',(2.8421709430404E-014,3.31240444208994E-015,-2.8421709430404E-014));
#547=DIRECTION('',(0.0,0.0,-1.0));
#548=DIRECTION('',(1.0,1.13720619835007E-016,0.0));
#549=CARTESIAN_POINT('',(2.8421709430404E-014,3.31240444208994E-015,2.99999999999997));
#550=DIRECTION('',(0.0,0.0,-1.0));
#551=DIRECTION('',(1.0,1.13720619835007E-016,0.0));
#552=DIRECTION('',(-0.0,-0.0,1.0));
#553=CARTESIAN_POINT('',(2.8421709430404E-014,3.31240444208994E-015,-16.0));
#554=DIRECTION('',(0.0,0.0,-1.0));
#555=DIRECTION('',(1.0,1.13720619835007E-016,0.0));
#556=CARTESIAN_POINT('',(2.8421709430404E-014,3.31240444208994E-015,-2.8421709430404E-014));
#557=DIRECTION('',(0.0,0.0,-1.0));
#558=DIRECTION('',(1.0,1.13720619835007E-016,0.0));
#559=CARTESIAN_POINT('',(2.8421709430404E-014,3.31240444208994E-015,-16.0));
#560=DIRECTION('',(0.0,0.0,-1.0));
#561=DIRECTION('',(1.0,1.13720619835007E-016,0.0));
#562=SURFACE_STYLE_FILL_AREA(#588);
#563=ORIENTED_EDGE('',*,*,#88,.F.);
#564=ORIENTED_EDGE('',*,*,#106,.F.);
#565=ORIENTED_EDGE('',*,*,#92,.F.);
#566=ORIENTED_EDGE('',*,*,#154,.T.);
#567=CARTESIAN_POINT('',(2.8421709430404E-014,3.31240444208994E-015,-6.50000000000003));
#568=DIRECTION('',(-0.0,-0.0,1.0));
#569=DIRECTION('',(1.0,1.13720619835007E-016,0.0));
#570=SURFACE_STYLE_FILL_AREA(#589);
#571=ORIENTED_EDGE('',*,*,#114,.T.);
#572=ORIENTED_EDGE('',*,*,#80,.F.);
#573=ORIENTED_EDGE('',*,*,#86,.T.);
#574=ORIENTED_EDGE('',*,*,#90,.T.);
#575=CARTESIAN_POINT('',(2.8421709430404E-014,3.31240444208994E-015,2.49999999999997));
#576=DIRECTION('',(0.0,-0.0,-1.0));
#577=DIRECTION('',(1.0,1.13720619835007E-016,0.0));
#578=FILL_AREA_STYLE('',(#590));
#579=FILL_AREA_STYLE('',(#591));
#580=FILL_AREA_STYLE('',(#592));
#581=FILL_AREA_STYLE('',(#593));
#582=FILL_AREA_STYLE('',(#594));
#583=FILL_AREA_STYLE('',(#595));
#584=FILL_AREA_STYLE('',(#596));
#585=FILL_AREA_STYLE('',(#597));
#586=FILL_AREA_STYLE('',(#598));
#587=FILL_AREA_STYLE('',(#599));
#588=FILL_AREA_STYLE('',(#600));
#589=FILL_AREA_STYLE('',(#601));
#590=FILL_AREA_STYLE_COLOUR('',#602);
#591=FILL_AREA_STYLE_COLOUR('',#603);
#592=FILL_AREA_STYLE_COLOUR('',#604);
#593=FILL_AREA_STYLE_COLOUR('',#605);
#594=FILL_AREA_STYLE_COLOUR('',#606);
#595=FILL_AREA_STYLE_COLOUR('',#607);
#596=FILL_AREA_STYLE_COLOUR('',#608);
#597=FILL_AREA_STYLE_COLOUR('',#609);
#598=FILL_AREA_STYLE_COLOUR('',#610);
#599=FILL_AREA_STYLE_COLOUR('',#611);
#600=FILL_AREA_STYLE_COLOUR('',#612);
#601=FILL_AREA_STYLE_COLOUR('',#613);
#602=COLOUR_RGB('',0.509803950786591,0.509803950786591,0.588235318660736);
#603=COLOUR_RGB('',0.509803950786591,0.509803950786591,0.588235318660736);
#604=COLOUR_RGB('',0.509803950786591,0.509803950786591,0.588235318660736);
#605=COLOUR_RGB('',0.509803950786591,0.509803950786591,0.588235318660736);
#606=COLOUR_RGB('',0.509803950786591,0.509803950786591,0.588235318660736);
#607=COLOUR_RGB('',0.509803950786591,0.509803950786591,0.588235318660736);
#608=COLOUR_RGB('',0.509803950786591,0.509803950786591,0.588235318660736);
#609=COLOUR_RGB('',0.509803950786591,0.509803950786591,0.588235318660736);
#610=COLOUR_RGB('',0.509803950786591,0.509803950786591,0.588235318660736);
#611=COLOUR_RGB('',0.509803950786591,0.509803950786591,0.588235318660736);
#612=COLOUR_RGB('',0.509803950786591,0.509803950786591,0.588235318660736);
#613=COLOUR_RGB('',0.509803950786591,0.509803950786591,0.588235318660736);
ENDSEC;
END-ISO-10303-21;
