ISO-10303-21;
HEADER;
FILE_DESCRIPTION(('STEP AP214'),'1');
FILE_NAME(' ','  ',('TraceParts'),('TraceParts S.A.'),'XStep 1.0',' ',' ');
FILE_SCHEMA(('automotive_design'));
ENDSEC;
DATA;
#1=MECHANICAL_DESIGN_GEOMETRIC_PRESENTATION_REPRESENTATION(' ',(#10,#11,#12,#13,#14,#15,#16,#17,#18,#19,#20,#21,#22,#23,#24,#25,#26,#27,#28,#29,#30,#31,#32,#33,#34,#35,#36,#37,#38,#39,#40,#41,#42,#43,#44,#45,#46,#47,#48,#49,#50,#51,#52,#53,#54,#55,#56,#57),#6);
#2=PRODUCT_DEFINITION_CONTEXT('',#58,'design');
#3=APPLICATION_PROTOCOL_DEFINITION('INTERNATIONAL STANDARD','automotive_design',1994,#58);
#4=PRODUCT_CATEGORY_RELATIONSHIP('NONE','NONE',#59,#60);
#5=SHAPE_DEFINITION_REPRESENTATION(#61,#62);
#6= (GEOMETRIC_REPRESENTATION_CONTEXT(3)GLOBAL_UNCERTAINTY_ASSIGNED_CONTEXT((#65))GLOBAL_UNIT_ASSIGNED_CONTEXT((#67,#68,#69))REPRESENTATION_CONTEXT('NONE','WORKSPACE'));
#10=STYLED_ITEM('',(#71),#72);
#11=STYLED_ITEM('',(#73),#74);
#12=STYLED_ITEM('',(#75),#76);
#13=STYLED_ITEM('',(#77),#78);
#14=STYLED_ITEM('',(#79),#80);
#15=STYLED_ITEM('',(#81),#82);
#16=STYLED_ITEM('',(#83),#84);
#17=STYLED_ITEM('',(#85),#86);
#18=STYLED_ITEM('',(#87),#88);
#19=STYLED_ITEM('',(#89),#90);
#20=STYLED_ITEM('',(#91),#92);
#21=STYLED_ITEM('',(#93),#94);
#22=STYLED_ITEM('',(#95),#96);
#23=STYLED_ITEM('',(#97),#98);
#24=STYLED_ITEM('',(#99),#100);
#25=STYLED_ITEM('',(#101),#102);
#26=STYLED_ITEM('',(#103),#104);
#27=STYLED_ITEM('',(#105),#106);
#28=STYLED_ITEM('',(#107),#108);
#29=STYLED_ITEM('',(#109),#110);
#30=STYLED_ITEM('',(#111),#112);
#31=STYLED_ITEM('',(#113),#114);
#32=STYLED_ITEM('',(#115),#116);
#33=STYLED_ITEM('',(#117),#118);
#34=STYLED_ITEM('',(#119),#120);
#35=STYLED_ITEM('',(#121),#122);
#36=STYLED_ITEM('',(#123),#124);
#37=STYLED_ITEM('',(#125),#126);
#38=STYLED_ITEM('',(#127),#128);
#39=STYLED_ITEM('',(#129),#130);
#40=STYLED_ITEM('',(#131),#132);
#41=STYLED_ITEM('',(#133),#134);
#42=STYLED_ITEM('',(#135),#136);
#43=STYLED_ITEM('',(#137),#138);
#44=STYLED_ITEM('',(#139),#140);
#45=STYLED_ITEM('',(#141),#142);
#46=STYLED_ITEM('',(#143),#144);
#47=STYLED_ITEM('',(#145),#146);
#48=STYLED_ITEM('',(#147),#148);
#49=STYLED_ITEM('',(#149),#150);
#50=STYLED_ITEM('',(#151),#152);
#51=STYLED_ITEM('',(#153),#154);
#52=STYLED_ITEM('',(#155),#156);
#53=STYLED_ITEM('',(#157),#158);
#54=STYLED_ITEM('',(#159),#160);
#55=STYLED_ITEM('',(#161),#162);
#56=STYLED_ITEM('',(#163),#164);
#57=STYLED_ITEM('',(#165),#166);
#58=APPLICATION_CONTEXT(' ');
#59=PRODUCT_CATEGORY('part','NONE');
#60=PRODUCT_RELATED_PRODUCT_CATEGORY('detail',' ',(#167));
#61=PRODUCT_DEFINITION_SHAPE('NONE','NONE',#168);
#62=ADVANCED_BREP_SHAPE_REPRESENTATION('1',(#164,#169),#6);
#65=UNCERTAINTY_MEASURE_WITH_UNIT(LENGTH_MEASURE(1.0E-006),#67,'','');
#67= (CONVERSION_BASED_UNIT('MILLIMETRE',#172)LENGTH_UNIT()NAMED_UNIT(#175));
#68= (NAMED_UNIT(#177)PLANE_ANGLE_UNIT()SI_UNIT($,.RADIAN.));
#69= (NAMED_UNIT(#177)SOLID_ANGLE_UNIT()SI_UNIT($,.STERADIAN.));
#71=PRESENTATION_STYLE_ASSIGNMENT((#183));
#72=EDGE_CURVE('',#96,#98,#184,.T.);
#73=PRESENTATION_STYLE_ASSIGNMENT((#185));
#74=EDGE_CURVE('',#98,#150,#186,.T.);
#75=PRESENTATION_STYLE_ASSIGNMENT((#187));
#76=EDGE_CURVE('',#150,#112,#188,.T.);
#77=PRESENTATION_STYLE_ASSIGNMENT((#189));
#78=EDGE_CURVE('',#160,#100,#190,.T.);
#79=PRESENTATION_STYLE_ASSIGNMENT((#191));
#80=ADVANCED_FACE('',(#192),#193,.T.);
#81=PRESENTATION_STYLE_ASSIGNMENT((#194));
#82=EDGE_CURVE('',#102,#118,#195,.T.);
#83=PRESENTATION_STYLE_ASSIGNMENT((#196));
#84=ADVANCED_FACE('',(#197),#198,.F.);
#85=PRESENTATION_STYLE_ASSIGNMENT((#199));
#86=EDGE_CURVE('',#114,#134,#200,.T.);
#87=PRESENTATION_STYLE_ASSIGNMENT((#201));
#88=ADVANCED_FACE('',(#202),#203,.F.);
#89=PRESENTATION_STYLE_ASSIGNMENT((#204));
#90=VERTEX_POINT('',#205);
#91=PRESENTATION_STYLE_ASSIGNMENT((#206));
#92=EDGE_CURVE('',#118,#114,#207,.T.);
#93=PRESENTATION_STYLE_ASSIGNMENT((#208));
#94=EDGE_CURVE('',#112,#96,#209,.T.);
#95=PRESENTATION_STYLE_ASSIGNMENT((#210));
#96=VERTEX_POINT('',#211);
#97=PRESENTATION_STYLE_ASSIGNMENT((#212));
#98=VERTEX_POINT('',#213);
#99=PRESENTATION_STYLE_ASSIGNMENT((#214));
#100=VERTEX_POINT('',#215);
#101=PRESENTATION_STYLE_ASSIGNMENT((#216));
#102=VERTEX_POINT('',#217);
#103=PRESENTATION_STYLE_ASSIGNMENT((#218));
#104=EDGE_CURVE('',#134,#102,#219,.T.);
#105=PRESENTATION_STYLE_ASSIGNMENT((#220));
#106=EDGE_CURVE('',#144,#156,#221,.T.);
#107=PRESENTATION_STYLE_ASSIGNMENT((#222));
#108=EDGE_CURVE('',#118,#102,#223,.T.);
#109=PRESENTATION_STYLE_ASSIGNMENT((#224));
#110=ADVANCED_FACE('',(#225),#226,.T.);
#111=PRESENTATION_STYLE_ASSIGNMENT((#227));
#112=VERTEX_POINT('',#228);
#113=PRESENTATION_STYLE_ASSIGNMENT((#229));
#114=VERTEX_POINT('',#230);
#115=PRESENTATION_STYLE_ASSIGNMENT((#231));
#116=EDGE_CURVE('',#90,#122,#232,.T.);
#117=PRESENTATION_STYLE_ASSIGNMENT((#233));
#118=VERTEX_POINT('',#234);
#119=PRESENTATION_STYLE_ASSIGNMENT((#235));
#120=EDGE_CURVE('',#112,#150,#236,.T.);
#121=PRESENTATION_STYLE_ASSIGNMENT((#237));
#122=VERTEX_POINT('',#238);
#123=PRESENTATION_STYLE_ASSIGNMENT((#239));
#124=ADVANCED_FACE('',(#240,#241),#242,.T.);
#125=PRESENTATION_STYLE_ASSIGNMENT((#243));
#126=EDGE_CURVE('',#100,#98,#244,.T.);
#127=PRESENTATION_STYLE_ASSIGNMENT((#245));
#128=ADVANCED_FACE('',(#246),#247,.T.);
#129=PRESENTATION_STYLE_ASSIGNMENT((#248));
#130=EDGE_CURVE('',#156,#144,#249,.T.);
#131=PRESENTATION_STYLE_ASSIGNMENT((#250));
#132=EDGE_CURVE('',#98,#96,#251,.T.);
#133=PRESENTATION_STYLE_ASSIGNMENT((#252));
#134=VERTEX_POINT('',#253);
#135=PRESENTATION_STYLE_ASSIGNMENT((#254));
#136=ADVANCED_FACE('',(#255),#256,.T.);
#137=PRESENTATION_STYLE_ASSIGNMENT((#257));
#138=ADVANCED_FACE('',(#258,#259),#260,.T.);
#139=PRESENTATION_STYLE_ASSIGNMENT((#261));
#140=EDGE_CURVE('',#144,#90,#262,.T.);
#141=PRESENTATION_STYLE_ASSIGNMENT((#263));
#142=ADVANCED_FACE('',(#264),#265,.T.);
#143=PRESENTATION_STYLE_ASSIGNMENT((#266));
#144=VERTEX_POINT('',#267);
#145=PRESENTATION_STYLE_ASSIGNMENT((#268));
#146=EDGE_CURVE('',#100,#160,#269,.T.);
#147=PRESENTATION_STYLE_ASSIGNMENT((#270));
#148=ADVANCED_FACE('',(#271),#272,.T.);
#149=PRESENTATION_STYLE_ASSIGNMENT((#273));
#150=VERTEX_POINT('',#274);
#151=PRESENTATION_STYLE_ASSIGNMENT((#275));
#152=EDGE_CURVE('',#122,#90,#276,.T.);
#153=PRESENTATION_STYLE_ASSIGNMENT((#277));
#154=EDGE_CURVE('',#96,#160,#278,.T.);
#155=PRESENTATION_STYLE_ASSIGNMENT((#279));
#156=VERTEX_POINT('',#280);
#157=PRESENTATION_STYLE_ASSIGNMENT((#281));
#158=EDGE_CURVE('',#134,#114,#282,.T.);
#159=PRESENTATION_STYLE_ASSIGNMENT((#283));
#160=VERTEX_POINT('',#284);
#161=PRESENTATION_STYLE_ASSIGNMENT((#285));
#162=ADVANCED_FACE('',(#286,#287),#288,.T.);
#163=PRESENTATION_STYLE_ASSIGNMENT((#289));
#164=MANIFOLD_SOLID_BREP('1',#290);
#165=PRESENTATION_STYLE_ASSIGNMENT((#291));
#166=EDGE_CURVE('',#122,#156,#292,.T.);
#167=PRODUCT('1','1','PART-1-DESC',(#293));
#168=PRODUCT_DEFINITION('NONE','NONE',#294,#2);
#169=AXIS2_PLACEMENT_3D('',#295,#296,#297);
#172=LENGTH_MEASURE_WITH_UNIT(LENGTH_MEASURE(1.0),#298);
#175=DIMENSIONAL_EXPONENTS(1.0,0.0,0.0,0.0,0.0,0.0,0.0);
#177=DIMENSIONAL_EXPONENTS(0.0,0.0,0.0,0.0,0.0,0.0,0.0);
#183=CURVE_STYLE('',#299,POSITIVE_LENGTH_MEASURE(1.0E-006),#300);
#184=CIRCLE('',#301,16.5);
#185=CURVE_STYLE('',#302,POSITIVE_LENGTH_MEASURE(1.0E-006),#303);
#186=LINE('',#304,#305);
#187=CURVE_STYLE('',#306,POSITIVE_LENGTH_MEASURE(1.0E-006),#307);
#188=CIRCLE('',#308,16.5);
#189=CURVE_STYLE('',#309,POSITIVE_LENGTH_MEASURE(1.0E-006),#310);
#190=CIRCLE('',#311,15.5);
#191=SURFACE_STYLE_USAGE(.BOTH.,#312);
#192=FACE_OUTER_BOUND('',#313,.T.);
#193=CONICAL_SURFACE('',#314,16.0,0.785398163397462);
#194=CURVE_STYLE('',#315,POSITIVE_LENGTH_MEASURE(1.0E-006),#316);
#195=CIRCLE('',#317,9.85145);
#196=SURFACE_STYLE_USAGE(.BOTH.,#318);
#197=FACE_OUTER_BOUND('',#319,.T.);
#198=CONICAL_SURFACE('',#320,8.798225,0.130900310622845);
#199=CURVE_STYLE('',#321,POSITIVE_LENGTH_MEASURE(1.0E-006),#322);
#200=CIRCLE('',#323,7.745);
#201=SURFACE_STYLE_USAGE(.BOTH.,#324);
#202=FACE_OUTER_BOUND('',#325,.T.);
#203=CONICAL_SURFACE('',#326,8.798225,0.130900310622845);
#204=POINT_STYLE(' ',#327,POSITIVE_LENGTH_MEASURE(1.0E-006),#328);
#205=CARTESIAN_POINT('',(-15.0,4.30601766514425E-016,-2.8421709430404E-014));
#206=CURVE_STYLE('',#329,POSITIVE_LENGTH_MEASURE(1.0E-006),#330);
#207=LINE('',#331,#332);
#208=CURVE_STYLE('',#333,POSITIVE_LENGTH_MEASURE(1.0E-006),#334);
#209=LINE('',#335,#336);
#210=POINT_STYLE(' ',#337,POSITIVE_LENGTH_MEASURE(1.0E-006),#338);
#211=CARTESIAN_POINT('',(-16.4999999999999,7.99053445942496E-017,1.99999999999997));
#212=POINT_STYLE(' ',#339,POSITIVE_LENGTH_MEASURE(1.0E-006),#340);
#213=CARTESIAN_POINT('',(16.5000000000001,5.89693615183206E-015,1.99999999999997));
#214=POINT_STYLE(' ',#341,POSITIVE_LENGTH_MEASURE(1.0E-006),#342);
#215=CARTESIAN_POINT('',(15.5,5.83570583414094E-015,2.99999999999997));
#216=POINT_STYLE(' ',#343,POSITIVE_LENGTH_MEASURE(1.0E-006),#344);
#217=CARTESIAN_POINT('',(-9.85144999999994,1.63432047523254E-015,2.99999999999997));
#218=CURVE_STYLE('',#345,POSITIVE_LENGTH_MEASURE(1.0E-006),#346);
#219=LINE('',#347,#348);
#220=CURVE_STYLE('',#349,POSITIVE_LENGTH_MEASURE(1.0E-006),#350);
#221=CIRCLE('',#351,15.0);
#222=CURVE_STYLE('',#352,POSITIVE_LENGTH_MEASURE(1.0E-006),#353);
#223=CIRCLE('',#354,9.85145);
#224=SURFACE_STYLE_USAGE(.BOTH.,#355);
#225=FACE_OUTER_BOUND('',#356,.T.);
#226=CYLINDRICAL_SURFACE('',#357,15.0);
#227=POINT_STYLE(' ',#358,POSITIVE_LENGTH_MEASURE(1.0E-006),#359);
#228=CARTESIAN_POINT('',(-16.4999999999999,7.99053445942496E-017,-2.8421709430404E-014));
#229=POINT_STYLE(' ',#360,POSITIVE_LENGTH_MEASURE(1.0E-006),#361);
#230=CARTESIAN_POINT('',(7.74500000000006,3.90633852369379E-015,-13.0));
#231=CURVE_STYLE('',#362,POSITIVE_LENGTH_MEASURE(1.0E-006),#363);
#232=CIRCLE('',#364,15.0);
#233=POINT_STYLE(' ',#365,POSITIVE_LENGTH_MEASURE(1.0E-006),#366);
#234=CARTESIAN_POINT('',(9.85145000000006,5.1439808121526E-015,2.99999999999997));
#235=CURVE_STYLE('',#367,POSITIVE_LENGTH_MEASURE(1.0E-006),#368);
#236=CIRCLE('',#369,16.5);
#237=POINT_STYLE(' ',#370,POSITIVE_LENGTH_MEASURE(1.0E-006),#371);
#238=CARTESIAN_POINT('',(15.0000000000001,5.59078456337647E-015,-2.8421709430404E-014));
#239=SURFACE_STYLE_USAGE(.BOTH.,#372);
#240=FACE_BOUND('',#373,.T.);
#241=FACE_OUTER_BOUND('',#374,.T.);
#242=PLANE('',#375);
#243=CURVE_STYLE('',#376,POSITIVE_LENGTH_MEASURE(1.0E-006),#377);
#244=LINE('',#378,#379);
#245=SURFACE_STYLE_USAGE(.BOTH.,#380);
#246=FACE_OUTER_BOUND('',#381,.T.);
#247=CONICAL_SURFACE('',#382,16.0,0.785398163397462);
#248=CURVE_STYLE('',#383,POSITIVE_LENGTH_MEASURE(1.0E-006),#384);
#249=CIRCLE('',#385,15.0);
#250=CURVE_STYLE('',#386,POSITIVE_LENGTH_MEASURE(1.0E-006),#387);
#251=CIRCLE('',#388,16.5);
#252=POINT_STYLE(' ',#389,POSITIVE_LENGTH_MEASURE(1.0E-006),#390);
#253=CARTESIAN_POINT('',(-7.74499999999995,2.12680346053505E-015,-13.0));
#254=SURFACE_STYLE_USAGE(.BOTH.,#391);
#255=FACE_OUTER_BOUND('',#392,.T.);
#256=CYLINDRICAL_SURFACE('',#393,16.5);
#257=SURFACE_STYLE_USAGE(.BOTH.,#394);
#258=FACE_OUTER_BOUND('',#395,.T.);
#259=FACE_BOUND('',#396,.T.);
#260=PLANE('',#397);
#261=CURVE_STYLE('',#398,POSITIVE_LENGTH_MEASURE(1.0E-006),#399);
#262=LINE('',#400,#401);
#263=SURFACE_STYLE_USAGE(.BOTH.,#402);
#264=FACE_OUTER_BOUND('',#403,.T.);
#265=CYLINDRICAL_SURFACE('',#404,15.0);
#266=POINT_STYLE(' ',#405,POSITIVE_LENGTH_MEASURE(1.0E-006),#406);
#267=CARTESIAN_POINT('',(-15.0,4.30601766514425E-016,-13.0));
#268=CURVE_STYLE('',#407,POSITIVE_LENGTH_MEASURE(1.0E-006),#408);
#269=CIRCLE('',#409,15.5);
#270=SURFACE_STYLE_USAGE(.BOTH.,#410);
#271=FACE_OUTER_BOUND('',#411,.T.);
#272=CYLINDRICAL_SURFACE('',#412,16.5);
#273=POINT_STYLE(' ',#413,POSITIVE_LENGTH_MEASURE(1.0E-006),#414);
#274=CARTESIAN_POINT('',(16.5000000000001,5.77447551644982E-015,-2.8421709430404E-014));
#275=CURVE_STYLE('',#415,POSITIVE_LENGTH_MEASURE(1.0E-006),#416);
#276=CIRCLE('',#417,15.0);
#277=CURVE_STYLE('',#418,POSITIVE_LENGTH_MEASURE(1.0E-006),#419);
#278=LINE('',#420,#421);
#279=POINT_STYLE(' ',#422,POSITIVE_LENGTH_MEASURE(1.0E-006),#423);
#280=CARTESIAN_POINT('',(15.0000000000001,4.79479043339193E-015,-13.0));
#281=CURVE_STYLE('',#424,POSITIVE_LENGTH_MEASURE(1.0E-006),#425);
#282=CIRCLE('',#426,7.745);
#283=POINT_STYLE(' ',#427,POSITIVE_LENGTH_MEASURE(1.0E-006),#428);
#284=CARTESIAN_POINT('',(-15.4999999999999,3.13702959207711E-016,2.99999999999997));
#285=SURFACE_STYLE_USAGE(.BOTH.,#429);
#286=FACE_BOUND('',#430,.T.);
#287=FACE_OUTER_BOUND('',#431,.T.);
#288=PLANE('',#432);
#289=SURFACE_STYLE_USAGE(.BOTH.,#433);
#290=CLOSED_SHELL('',(#148,#128,#84,#142,#124,#110,#162,#88,#138,#80,#136));
#291=CURVE_STYLE('',#434,POSITIVE_LENGTH_MEASURE(1.0E-006),#435);
#292=LINE('',#436,#437);
#293=PRODUCT_CONTEXT('',#58,'mechanical');
#294=PRODUCT_DEFINITION_FORMATION_WITH_SPECIFIED_SOURCE(' ','NONE',#167,.NOT_KNOWN.);
#295=CARTESIAN_POINT('',(0.0,0.0,0.0));
#296=DIRECTION('',(0.0,0.0,1.0));
#297=DIRECTION('',(1.0,0.0,0.0));
#298= (NAMED_UNIT(#175)LENGTH_UNIT()SI_UNIT(.MILLI.,.METRE.));
#299=DRAUGHTING_PRE_DEFINED_CURVE_FONT('continuous');
#300=COLOUR_RGB('',0.509803950786591,0.509803950786591,0.588235318660736);
#301=AXIS2_PLACEMENT_3D('',#439,#440,#441);
#302=DRAUGHTING_PRE_DEFINED_CURVE_FONT('continuous');
#303=COLOUR_RGB('',0.509803950786591,0.509803950786591,0.588235318660736);
#304=CARTESIAN_POINT('',(16.5000000000001,7.79522662683827E-015,0.999999999999972));
#305=VECTOR('',#442,1.0);
#306=DRAUGHTING_PRE_DEFINED_CURVE_FONT('continuous');
#307=COLOUR_RGB('',0.509803950786591,0.509803950786591,0.588235318660736);
#308=AXIS2_PLACEMENT_3D('',#443,#444,#445);
#309=DRAUGHTING_PRE_DEFINED_CURVE_FONT('continuous');
#310=COLOUR_RGB('',0.509803950786591,0.509803950786591,0.588235318660736);
#311=AXIS2_PLACEMENT_3D('',#446,#447,#448);
#312=SURFACE_SIDE_STYLE('',(#449));
#313=EDGE_LOOP('',(#450,#451,#452,#453));
#314=AXIS2_PLACEMENT_3D('',#454,#455,#456);
#315=DRAUGHTING_PRE_DEFINED_CURVE_FONT('continuous');
#316=COLOUR_RGB('',0.509803950786591,0.509803950786591,0.588235318660736);
#317=AXIS2_PLACEMENT_3D('',#457,#458,#459);
#318=SURFACE_SIDE_STYLE('',(#460));
#319=EDGE_LOOP('',(#461,#462,#463,#464));
#320=AXIS2_PLACEMENT_3D('',#465,#466,#467);
#321=DRAUGHTING_PRE_DEFINED_CURVE_FONT('continuous');
#322=COLOUR_RGB('',0.509803950786591,0.509803950786591,0.588235318660736);
#323=AXIS2_PLACEMENT_3D('',#468,#469,#470);
#324=SURFACE_SIDE_STYLE('',(#471));
#325=EDGE_LOOP('',(#472,#473,#474,#475));
#326=AXIS2_PLACEMENT_3D('',#476,#477,#478);
#327=PRE_DEFINED_MARKER('');
#328=COLOUR_RGB('',0.509803950786591,0.509803950786591,0.588235318660736);
#329=DRAUGHTING_PRE_DEFINED_CURVE_FONT('continuous');
#330=COLOUR_RGB('',0.509803950786591,0.509803950786591,0.588235318660736);
#331=CARTESIAN_POINT('',(8.79822500000006,5.99457000354872E-015,-5.00000000000003));
#332=VECTOR('',#479,1.0);
#333=DRAUGHTING_PRE_DEFINED_CURVE_FONT('continuous');
#334=COLOUR_RGB('',0.509803950786591,0.509803950786591,0.588235318660736);
#335=CARTESIAN_POINT('',(-16.4999999999999,7.99053445942496E-017,0.999999999999972));
#336=VECTOR('',#480,1.0);
#337=PRE_DEFINED_MARKER('');
#338=COLOUR_RGB('',0.509803950786591,0.509803950786591,0.588235318660736);
#339=PRE_DEFINED_MARKER('');
#340=COLOUR_RGB('',0.509803950786591,0.509803950786591,0.588235318660736);
#341=PRE_DEFINED_MARKER('');
#342=COLOUR_RGB('',0.509803950786591,0.509803950786591,0.588235318660736);
#343=PRE_DEFINED_MARKER('');
#344=COLOUR_RGB('',0.509803950786591,0.509803950786591,0.588235318660736);
#345=DRAUGHTING_PRE_DEFINED_CURVE_FONT('continuous');
#346=COLOUR_RGB('',0.509803950786591,0.509803950786591,0.588235318660736);
#347=CARTESIAN_POINT('',(-8.79822499999994,1.88056196788379E-015,-5.00000000000003));
#348=VECTOR('',#481,1.0);
#349=DRAUGHTING_PRE_DEFINED_CURVE_FONT('continuous');
#350=COLOUR_RGB('',0.509803950786591,0.509803950786591,0.588235318660736);
#351=AXIS2_PLACEMENT_3D('',#482,#483,#484);
#352=DRAUGHTING_PRE_DEFINED_CURVE_FONT('continuous');
#353=COLOUR_RGB('',0.509803950786591,0.509803950786591,0.588235318660736);
#354=AXIS2_PLACEMENT_3D('',#485,#486,#487);
#355=SURFACE_SIDE_STYLE('',(#488));
#356=EDGE_LOOP('',(#489,#490,#491,#492));
#357=AXIS2_PLACEMENT_3D('',#493,#494,#495);
#358=PRE_DEFINED_MARKER('');
#359=COLOUR_RGB('',0.509803950786591,0.509803950786591,0.588235318660736);
#360=PRE_DEFINED_MARKER('');
#361=COLOUR_RGB('',0.509803950786591,0.509803950786591,0.588235318660736);
#362=DRAUGHTING_PRE_DEFINED_CURVE_FONT('continuous');
#363=COLOUR_RGB('',0.509803950786591,0.509803950786591,0.588235318660736);
#364=AXIS2_PLACEMENT_3D('',#496,#497,#498);
#365=PRE_DEFINED_MARKER('');
#366=COLOUR_RGB('',0.509803950786591,0.509803950786591,0.588235318660736);
#367=DRAUGHTING_PRE_DEFINED_CURVE_FONT('continuous');
#368=COLOUR_RGB('',0.509803950786591,0.509803950786591,0.588235318660736);
#369=AXIS2_PLACEMENT_3D('',#499,#500,#501);
#370=PRE_DEFINED_MARKER('');
#371=COLOUR_RGB('',0.509803950786591,0.509803950786591,0.588235318660736);
#372=SURFACE_SIDE_STYLE('',(#502));
#373=EDGE_LOOP('',(#503,#504));
#374=EDGE_LOOP('',(#505,#506));
#375=AXIS2_PLACEMENT_3D('',#507,#508,#509);
#376=DRAUGHTING_PRE_DEFINED_CURVE_FONT('continuous');
#377=COLOUR_RGB('',0.509803950786591,0.509803950786591,0.588235318660736);
#378=CARTESIAN_POINT('',(16.0,7.67832781953154E-015,2.49999999999997));
#379=VECTOR('',#510,1.0);
#380=SURFACE_SIDE_STYLE('',(#511));
#381=EDGE_LOOP('',(#512,#513,#514,#515));
#382=AXIS2_PLACEMENT_3D('',#516,#517,#518);
#383=DRAUGHTING_PRE_DEFINED_CURVE_FONT('continuous');
#384=COLOUR_RGB('',0.509803950786591,0.509803950786591,0.588235318660736);
#385=AXIS2_PLACEMENT_3D('',#519,#520,#521);
#386=DRAUGHTING_PRE_DEFINED_CURVE_FONT('continuous');
#387=COLOUR_RGB('',0.509803950786591,0.509803950786591,0.588235318660736);
#388=AXIS2_PLACEMENT_3D('',#522,#523,#524);
#389=PRE_DEFINED_MARKER('');
#390=COLOUR_RGB('',0.509803950786591,0.509803950786591,0.588235318660736);
#391=SURFACE_SIDE_STYLE('',(#525));
#392=EDGE_LOOP('',(#526,#527,#528,#529));
#393=AXIS2_PLACEMENT_3D('',#530,#531,#532);
#394=SURFACE_SIDE_STYLE('',(#533));
#395=EDGE_LOOP('',(#534,#535));
#396=EDGE_LOOP('',(#536,#537));
#397=AXIS2_PLACEMENT_3D('',#538,#539,#540);
#398=DRAUGHTING_PRE_DEFINED_CURVE_FONT('continuous');
#399=COLOUR_RGB('',0.509803950786591,0.509803950786591,0.588235318660736);
#400=CARTESIAN_POINT('',(-15.0,4.30601766514425E-016,-6.50000000000003));
#401=VECTOR('',#541,1.0);
#402=SURFACE_SIDE_STYLE('',(#542));
#403=EDGE_LOOP('',(#543,#544,#545,#546));
#404=AXIS2_PLACEMENT_3D('',#547,#548,#549);
#405=PRE_DEFINED_MARKER('');
#406=COLOUR_RGB('',0.509803950786591,0.509803950786591,0.588235318660736);
#407=DRAUGHTING_PRE_DEFINED_CURVE_FONT('continuous');
#408=COLOUR_RGB('',0.509803950786591,0.509803950786591,0.588235318660736);
#409=AXIS2_PLACEMENT_3D('',#550,#551,#552);
#410=SURFACE_SIDE_STYLE('',(#553));
#411=EDGE_LOOP('',(#554,#555,#556,#557));
#412=AXIS2_PLACEMENT_3D('',#558,#559,#560);
#413=PRE_DEFINED_MARKER('');
#414=COLOUR_RGB('',0.509803950786591,0.509803950786591,0.588235318660736);
#415=DRAUGHTING_PRE_DEFINED_CURVE_FONT('continuous');
#416=COLOUR_RGB('',0.509803950786591,0.509803950786591,0.588235318660736);
#417=AXIS2_PLACEMENT_3D('',#561,#562,#563);
#418=DRAUGHTING_PRE_DEFINED_CURVE_FONT('continuous');
#419=COLOUR_RGB('',0.509803950786591,0.509803950786591,0.588235318660736);
#420=CARTESIAN_POINT('',(-15.9999999999999,1.9680415190098E-016,2.49999999999997));
#421=VECTOR('',#564,1.0);
#422=PRE_DEFINED_MARKER('');
#423=COLOUR_RGB('',0.509803950786591,0.509803950786591,0.588235318660736);
#424=DRAUGHTING_PRE_DEFINED_CURVE_FONT('continuous');
#425=COLOUR_RGB('',0.509803950786591,0.509803950786591,0.588235318660736);
#426=AXIS2_PLACEMENT_3D('',#565,#566,#567);
#427=PRE_DEFINED_MARKER('');
#428=COLOUR_RGB('',0.509803950786591,0.509803950786591,0.588235318660736);
#429=SURFACE_SIDE_STYLE('',(#568));
#430=EDGE_LOOP('',(#569,#570));
#431=EDGE_LOOP('',(#571,#572));
#432=AXIS2_PLACEMENT_3D('',#573,#574,#575);
#433=SURFACE_SIDE_STYLE('',(#576));
#434=DRAUGHTING_PRE_DEFINED_CURVE_FONT('continuous');
#435=COLOUR_RGB('',0.509803950786591,0.509803950786591,0.588235318660736);
#436=CARTESIAN_POINT('',(15.0000000000001,7.44453020491809E-015,-6.50000000000003));
#437=VECTOR('',#577,1.0);
#439=CARTESIAN_POINT('',(5.6843418860808E-014,3.93756598571626E-015,1.99999999999997));
#440=DIRECTION('',(0.0,0.0,-1.0));
#441=DIRECTION('',(1.0,1.11336979231217E-016,0.0));
#442=DIRECTION('',(0.0,0.0,-1.0));
#443=CARTESIAN_POINT('',(5.6843418860808E-014,3.93756598571626E-015,-2.8421709430404E-014));
#444=DIRECTION('',(0.0,0.0,-1.0));
#445=DIRECTION('',(1.0,1.11336979231217E-016,0.0));
#446=CARTESIAN_POINT('',(5.6843418860808E-014,3.93756598571626E-015,2.99999999999997));
#447=DIRECTION('',(0.0,0.0,-1.0));
#448=DIRECTION('',(1.0,1.11336979231217E-016,0.0));
#449=SURFACE_STYLE_FILL_AREA(#578);
#450=ORIENTED_EDGE('',*,*,#126,.T.);
#451=ORIENTED_EDGE('',*,*,#72,.F.);
#452=ORIENTED_EDGE('',*,*,#154,.T.);
#453=ORIENTED_EDGE('',*,*,#78,.T.);
#454=CARTESIAN_POINT('',(5.6843418860808E-014,3.93756598571626E-015,2.49999999999997));
#455=DIRECTION('',(0.0,-0.0,-1.0));
#456=DIRECTION('',(1.0,1.11336979231217E-016,0.0));
#457=CARTESIAN_POINT('',(5.6843418860808E-014,3.93756598571626E-015,2.99999999999997));
#458=DIRECTION('',(0.0,0.0,-1.0));
#459=DIRECTION('',(1.0,1.11336979231217E-016,0.0));
#460=SURFACE_STYLE_FILL_AREA(#579);
#461=ORIENTED_EDGE('',*,*,#92,.F.);
#462=ORIENTED_EDGE('',*,*,#82,.F.);
#463=ORIENTED_EDGE('',*,*,#104,.F.);
#464=ORIENTED_EDGE('',*,*,#158,.T.);
#465=CARTESIAN_POINT('',(5.6843418860808E-014,3.93756598571626E-015,-5.00000000000003));
#466=DIRECTION('',(-0.0,-0.0,1.0));
#467=DIRECTION('',(1.0,1.11336979231217E-016,0.0));
#468=CARTESIAN_POINT('',(5.6843418860808E-014,3.93756598571626E-015,-13.0));
#469=DIRECTION('',(0.0,0.0,-1.0));
#470=DIRECTION('',(1.0,1.11336979231217E-016,0.0));
#471=SURFACE_STYLE_FILL_AREA(#580);
#472=ORIENTED_EDGE('',*,*,#92,.T.);
#473=ORIENTED_EDGE('',*,*,#86,.T.);
#474=ORIENTED_EDGE('',*,*,#104,.T.);
#475=ORIENTED_EDGE('',*,*,#108,.F.);
#476=CARTESIAN_POINT('',(5.6843418860808E-014,3.93756598571626E-015,-5.00000000000003));
#477=DIRECTION('',(-0.0,-0.0,1.0));
#478=DIRECTION('',(1.0,1.11336979231217E-016,0.0));
#479=DIRECTION('',(-0.130526803667144,-3.05168553404972E-017,-0.991444780875082));
#480=DIRECTION('',(-0.0,-0.0,1.0));
#481=DIRECTION('',(-0.130526803667144,-3.05168553404971E-017,0.991444780875082));
#482=CARTESIAN_POINT('',(5.6843418860808E-014,3.93756598571626E-015,-13.0));
#483=DIRECTION('',(0.0,0.0,-1.0));
#484=DIRECTION('',(1.0,1.11336979231217E-016,0.0));
#485=CARTESIAN_POINT('',(5.6843418860808E-014,3.93756598571626E-015,2.99999999999997));
#486=DIRECTION('',(0.0,0.0,-1.0));
#487=DIRECTION('',(1.0,1.11336979231217E-016,0.0));
#488=SURFACE_STYLE_FILL_AREA(#581);
#489=ORIENTED_EDGE('',*,*,#166,.T.);
#490=ORIENTED_EDGE('',*,*,#106,.F.);
#491=ORIENTED_EDGE('',*,*,#140,.T.);
#492=ORIENTED_EDGE('',*,*,#116,.T.);
#493=CARTESIAN_POINT('',(5.6843418860808E-014,3.93756598571626E-015,-6.50000000000003));
#494=DIRECTION('',(-0.0,-0.0,1.0));
#495=DIRECTION('',(1.0,1.11336979231217E-016,0.0));
#496=CARTESIAN_POINT('',(5.6843418860808E-014,3.93756598571626E-015,-2.8421709430404E-014));
#497=DIRECTION('',(0.0,0.0,-1.0));
#498=DIRECTION('',(1.0,1.11336979231217E-016,0.0));
#499=CARTESIAN_POINT('',(5.6843418860808E-014,3.93756598571626E-015,-2.8421709430404E-014));
#500=DIRECTION('',(0.0,0.0,-1.0));
#501=DIRECTION('',(1.0,1.11336979231217E-016,0.0));
#502=SURFACE_STYLE_FILL_AREA(#582);
#503=ORIENTED_EDGE('',*,*,#152,.F.);
#504=ORIENTED_EDGE('',*,*,#116,.F.);
#505=ORIENTED_EDGE('',*,*,#76,.T.);
#506=ORIENTED_EDGE('',*,*,#120,.T.);
#507=CARTESIAN_POINT('',(15.7500000000001,5.68263003991315E-015,-2.8421709430404E-014));
#508=DIRECTION('',(0.0,0.0,-1.0));
#509=DIRECTION('',(1.0,1.22460635382238E-016,0.0));
#510=DIRECTION('',(0.707106781186558,1.65319878718416E-016,-0.707106781186537));
#511=SURFACE_STYLE_FILL_AREA(#583);
#512=ORIENTED_EDGE('',*,*,#126,.F.);
#513=ORIENTED_EDGE('',*,*,#146,.T.);
#514=ORIENTED_EDGE('',*,*,#154,.F.);
#515=ORIENTED_EDGE('',*,*,#132,.F.);
#516=CARTESIAN_POINT('',(5.6843418860808E-014,3.93756598571626E-015,2.49999999999997));
#517=DIRECTION('',(0.0,-0.0,-1.0));
#518=DIRECTION('',(1.0,1.11336979231217E-016,0.0));
#519=CARTESIAN_POINT('',(5.6843418860808E-014,3.93756598571626E-015,-13.0));
#520=DIRECTION('',(0.0,0.0,-1.0));
#521=DIRECTION('',(1.0,1.11336979231217E-016,0.0));
#522=CARTESIAN_POINT('',(5.6843418860808E-014,3.93756598571626E-015,1.99999999999997));
#523=DIRECTION('',(0.0,0.0,-1.0));
#524=DIRECTION('',(1.0,1.11336979231217E-016,0.0));
#525=SURFACE_STYLE_FILL_AREA(#584);
#526=ORIENTED_EDGE('',*,*,#74,.T.);
#527=ORIENTED_EDGE('',*,*,#120,.F.);
#528=ORIENTED_EDGE('',*,*,#94,.T.);
#529=ORIENTED_EDGE('',*,*,#72,.T.);
#530=CARTESIAN_POINT('',(5.6843418860808E-014,3.93756598571626E-015,0.999999999999972));
#531=DIRECTION('',(-0.0,-0.0,1.0));
#532=DIRECTION('',(1.0,1.11336979231217E-016,0.0));
#533=SURFACE_STYLE_FILL_AREA(#585);
#534=ORIENTED_EDGE('',*,*,#146,.F.);
#535=ORIENTED_EDGE('',*,*,#78,.F.);
#536=ORIENTED_EDGE('',*,*,#108,.T.);
#537=ORIENTED_EDGE('',*,*,#82,.T.);
#538=CARTESIAN_POINT('',(12.675725,5.48984332314677E-015,2.99999999999997));
#539=DIRECTION('',(0.0,0.0,1.0));
#540=DIRECTION('',(-1.0,-1.22460635382238E-016,0.0));
#541=DIRECTION('',(-0.0,-0.0,1.0));
#542=SURFACE_STYLE_FILL_AREA(#586);
#543=ORIENTED_EDGE('',*,*,#166,.F.);
#544=ORIENTED_EDGE('',*,*,#152,.T.);
#545=ORIENTED_EDGE('',*,*,#140,.F.);
#546=ORIENTED_EDGE('',*,*,#130,.F.);
#547=CARTESIAN_POINT('',(5.6843418860808E-014,3.93756598571626E-015,-6.50000000000003));
#548=DIRECTION('',(-0.0,-0.0,1.0));
#549=DIRECTION('',(1.0,1.11336979231217E-016,0.0));
#550=CARTESIAN_POINT('',(5.6843418860808E-014,3.93756598571626E-015,2.99999999999997));
#551=DIRECTION('',(0.0,0.0,-1.0));
#552=DIRECTION('',(1.0,1.11336979231217E-016,0.0));
#553=SURFACE_STYLE_FILL_AREA(#587);
#554=ORIENTED_EDGE('',*,*,#74,.F.);
#555=ORIENTED_EDGE('',*,*,#132,.T.);
#556=ORIENTED_EDGE('',*,*,#94,.F.);
#557=ORIENTED_EDGE('',*,*,#76,.F.);
#558=CARTESIAN_POINT('',(5.6843418860808E-014,3.93756598571626E-015,0.999999999999972));
#559=DIRECTION('',(-0.0,-0.0,1.0));
#560=DIRECTION('',(1.0,1.11336979231217E-016,0.0));
#561=CARTESIAN_POINT('',(5.6843418860808E-014,3.93756598571626E-015,-2.8421709430404E-014));
#562=DIRECTION('',(0.0,0.0,-1.0));
#563=DIRECTION('',(1.0,1.11336979231217E-016,0.0));
#564=DIRECTION('',(0.707106781186558,1.65319878718416E-016,0.707106781186537));
#565=CARTESIAN_POINT('',(5.6843418860808E-014,3.93756598571626E-015,-13.0));
#566=DIRECTION('',(0.0,0.0,-1.0));
#567=DIRECTION('',(1.0,1.11336979231217E-016,0.0));
#568=SURFACE_STYLE_FILL_AREA(#588);
#569=ORIENTED_EDGE('',*,*,#86,.F.);
#570=ORIENTED_EDGE('',*,*,#158,.F.);
#571=ORIENTED_EDGE('',*,*,#130,.T.);
#572=ORIENTED_EDGE('',*,*,#106,.T.);
#573=CARTESIAN_POINT('',(11.3725000000001,4.35056447854286E-015,-13.0));
#574=DIRECTION('',(0.0,0.0,-1.0));
#575=DIRECTION('',(1.0,1.22460635382238E-016,0.0));
#576=SURFACE_STYLE_FILL_AREA(#589);
#577=DIRECTION('',(0.0,0.0,-1.0));
#578=FILL_AREA_STYLE('',(#590));
#579=FILL_AREA_STYLE('',(#591));
#580=FILL_AREA_STYLE('',(#592));
#581=FILL_AREA_STYLE('',(#593));
#582=FILL_AREA_STYLE('',(#594));
#583=FILL_AREA_STYLE('',(#595));
#584=FILL_AREA_STYLE('',(#596));
#585=FILL_AREA_STYLE('',(#597));
#586=FILL_AREA_STYLE('',(#598));
#587=FILL_AREA_STYLE('',(#599));
#588=FILL_AREA_STYLE('',(#600));
#589=FILL_AREA_STYLE('',(#601));
#590=FILL_AREA_STYLE_COLOUR('',#602);
#591=FILL_AREA_STYLE_COLOUR('',#603);
#592=FILL_AREA_STYLE_COLOUR('',#604);
#593=FILL_AREA_STYLE_COLOUR('',#605);
#594=FILL_AREA_STYLE_COLOUR('',#606);
#595=FILL_AREA_STYLE_COLOUR('',#607);
#596=FILL_AREA_STYLE_COLOUR('',#608);
#597=FILL_AREA_STYLE_COLOUR('',#609);
#598=FILL_AREA_STYLE_COLOUR('',#610);
#599=FILL_AREA_STYLE_COLOUR('',#611);
#600=FILL_AREA_STYLE_COLOUR('',#612);
#601=FILL_AREA_STYLE_COLOUR('',#613);
#602=COLOUR_RGB('',0.509803950786591,0.509803950786591,0.588235318660736);
#603=COLOUR_RGB('',0.509803950786591,0.509803950786591,0.588235318660736);
#604=COLOUR_RGB('',0.509803950786591,0.509803950786591,0.588235318660736);
#605=COLOUR_RGB('',0.509803950786591,0.509803950786591,0.588235318660736);
#606=COLOUR_RGB('',0.509803950786591,0.509803950786591,0.588235318660736);
#607=COLOUR_RGB('',0.509803950786591,0.509803950786591,0.588235318660736);
#608=COLOUR_RGB('',0.509803950786591,0.509803950786591,0.588235318660736);
#609=COLOUR_RGB('',0.509803950786591,0.509803950786591,0.588235318660736);
#610=COLOUR_RGB('',0.509803950786591,0.509803950786591,0.588235318660736);
#611=COLOUR_RGB('',0.509803950786591,0.509803950786591,0.588235318660736);
#612=COLOUR_RGB('',0.509803950786591,0.509803950786591,0.588235318660736);
#613=COLOUR_RGB('',0.509803950786591,0.509803950786591,0.588235318660736);
ENDSEC;
END-ISO-10303-21;
