ISO-10303-21;
HEADER;
FILE_DESCRIPTION(('STEP AP214'),'1');
FILE_NAME(' ','  ',('TraceParts'),('TraceParts S.A.'),'XStep 1.0',' ',' ');
FILE_SCHEMA(('automotive_design'));
ENDSEC;
DATA;
#1=MECHANICAL_DESIGN_GEOMETRIC_PRESENTATION_REPRESENTATION(' ',(#10,#11,#12,#13,#14,#15,#16,#17,#18,#19,#20,#21,#22,#23,#24,#25,#26,#27,#28,#29,#30,#31,#32,#33,#34,#35,#36,#37,#38,#39,#40,#41,#42,#43,#44,#45,#46,#47,#48,#49,#50,#51,#52,#53,#54,#55,#56,#57),#6);
#2=PRODUCT_DEFINITION_CONTEXT('',#58,'design');
#3=APPLICATION_PROTOCOL_DEFINITION('INTERNATIONAL STANDARD','automotive_design',1994,#58);
#4=PRODUCT_CATEGORY_RELATIONSHIP('NONE','NONE',#59,#60);
#5=SHAPE_DEFINITION_REPRESENTATION(#61,#62);
#6= (GEOMETRIC_REPRESENTATION_CONTEXT(3)GLOBAL_UNCERTAINTY_ASSIGNED_CONTEXT((#65))GLOBAL_UNIT_ASSIGNED_CONTEXT((#67,#68,#69))REPRESENTATION_CONTEXT('NONE','WORKSPACE'));
#10=STYLED_ITEM('',(#71),#72);
#11=STYLED_ITEM('',(#73),#74);
#12=STYLED_ITEM('',(#75),#76);
#13=STYLED_ITEM('',(#77),#78);
#14=STYLED_ITEM('',(#79),#80);
#15=STYLED_ITEM('',(#81),#82);
#16=STYLED_ITEM('',(#83),#84);
#17=STYLED_ITEM('',(#85),#86);
#18=STYLED_ITEM('',(#87),#88);
#19=STYLED_ITEM('',(#89),#90);
#20=STYLED_ITEM('',(#91),#92);
#21=STYLED_ITEM('',(#93),#94);
#22=STYLED_ITEM('',(#95),#96);
#23=STYLED_ITEM('',(#97),#98);
#24=STYLED_ITEM('',(#99),#100);
#25=STYLED_ITEM('',(#101),#102);
#26=STYLED_ITEM('',(#103),#104);
#27=STYLED_ITEM('',(#105),#106);
#28=STYLED_ITEM('',(#107),#108);
#29=STYLED_ITEM('',(#109),#110);
#30=STYLED_ITEM('',(#111),#112);
#31=STYLED_ITEM('',(#113),#114);
#32=STYLED_ITEM('',(#115),#116);
#33=STYLED_ITEM('',(#117),#118);
#34=STYLED_ITEM('',(#119),#120);
#35=STYLED_ITEM('',(#121),#122);
#36=STYLED_ITEM('',(#123),#124);
#37=STYLED_ITEM('',(#125),#126);
#38=STYLED_ITEM('',(#127),#128);
#39=STYLED_ITEM('',(#129),#130);
#40=STYLED_ITEM('',(#131),#132);
#41=STYLED_ITEM('',(#133),#134);
#42=STYLED_ITEM('',(#135),#136);
#43=STYLED_ITEM('',(#137),#138);
#44=STYLED_ITEM('',(#139),#140);
#45=STYLED_ITEM('',(#141),#142);
#46=STYLED_ITEM('',(#143),#144);
#47=STYLED_ITEM('',(#145),#146);
#48=STYLED_ITEM('',(#147),#148);
#49=STYLED_ITEM('',(#149),#150);
#50=STYLED_ITEM('',(#151),#152);
#51=STYLED_ITEM('',(#153),#154);
#52=STYLED_ITEM('',(#155),#156);
#53=STYLED_ITEM('',(#157),#158);
#54=STYLED_ITEM('',(#159),#160);
#55=STYLED_ITEM('',(#161),#162);
#56=STYLED_ITEM('',(#163),#164);
#57=STYLED_ITEM('',(#165),#166);
#58=APPLICATION_CONTEXT(' ');
#59=PRODUCT_CATEGORY('part','NONE');
#60=PRODUCT_RELATED_PRODUCT_CATEGORY('detail',' ',(#167));
#61=PRODUCT_DEFINITION_SHAPE('NONE','NONE',#168);
#62=ADVANCED_BREP_SHAPE_REPRESENTATION('1',(#138,#169),#6);
#65=UNCERTAINTY_MEASURE_WITH_UNIT(LENGTH_MEASURE(1.0E-006),#67,'','');
#67= (CONVERSION_BASED_UNIT('MILLIMETRE',#172)LENGTH_UNIT()NAMED_UNIT(#175));
#68= (NAMED_UNIT(#177)PLANE_ANGLE_UNIT()SI_UNIT($,.RADIAN.));
#69= (NAMED_UNIT(#177)SOLID_ANGLE_UNIT()SI_UNIT($,.STERADIAN.));
#71=PRESENTATION_STYLE_ASSIGNMENT((#183));
#72=EDGE_CURVE('',#120,#86,#184,.T.);
#73=PRESENTATION_STYLE_ASSIGNMENT((#185));
#74=VERTEX_POINT('',#186);
#75=PRESENTATION_STYLE_ASSIGNMENT((#187));
#76=ADVANCED_FACE('',(#188,#189),#190,.T.);
#77=PRESENTATION_STYLE_ASSIGNMENT((#191));
#78=ADVANCED_FACE('',(#192,#193),#194,.T.);
#79=PRESENTATION_STYLE_ASSIGNMENT((#195));
#80=ADVANCED_FACE('',(#196,#197),#198,.T.);
#81=PRESENTATION_STYLE_ASSIGNMENT((#199));
#82=ADVANCED_FACE('',(#200),#201,.F.);
#83=PRESENTATION_STYLE_ASSIGNMENT((#202));
#84=ADVANCED_FACE('',(#203),#204,.T.);
#85=PRESENTATION_STYLE_ASSIGNMENT((#205));
#86=VERTEX_POINT('',#206);
#87=PRESENTATION_STYLE_ASSIGNMENT((#207));
#88=VERTEX_POINT('',#208);
#89=PRESENTATION_STYLE_ASSIGNMENT((#209));
#90=EDGE_CURVE('',#112,#124,#210,.T.);
#91=PRESENTATION_STYLE_ASSIGNMENT((#211));
#92=VERTEX_POINT('',#212);
#93=PRESENTATION_STYLE_ASSIGNMENT((#213));
#94=EDGE_CURVE('',#124,#112,#214,.T.);
#95=PRESENTATION_STYLE_ASSIGNMENT((#215));
#96=ADVANCED_FACE('',(#216),#217,.T.);
#97=PRESENTATION_STYLE_ASSIGNMENT((#218));
#98=VERTEX_POINT('',#219);
#99=PRESENTATION_STYLE_ASSIGNMENT((#220));
#100=EDGE_CURVE('',#106,#74,#221,.T.);
#101=PRESENTATION_STYLE_ASSIGNMENT((#222));
#102=EDGE_CURVE('',#86,#120,#223,.T.);
#103=PRESENTATION_STYLE_ASSIGNMENT((#224));
#104=EDGE_CURVE('',#88,#158,#225,.T.);
#105=PRESENTATION_STYLE_ASSIGNMENT((#226));
#106=VERTEX_POINT('',#227);
#107=PRESENTATION_STYLE_ASSIGNMENT((#228));
#108=EDGE_CURVE('',#106,#88,#229,.T.);
#109=PRESENTATION_STYLE_ASSIGNMENT((#230));
#110=EDGE_CURVE('',#144,#134,#231,.T.);
#111=PRESENTATION_STYLE_ASSIGNMENT((#232));
#112=VERTEX_POINT('',#233);
#113=PRESENTATION_STYLE_ASSIGNMENT((#234));
#114=EDGE_CURVE('',#158,#88,#235,.T.);
#115=PRESENTATION_STYLE_ASSIGNMENT((#236));
#116=EDGE_CURVE('',#120,#124,#237,.T.);
#117=PRESENTATION_STYLE_ASSIGNMENT((#238));
#118=EDGE_CURVE('',#158,#74,#239,.T.);
#119=PRESENTATION_STYLE_ASSIGNMENT((#240));
#120=VERTEX_POINT('',#241);
#121=PRESENTATION_STYLE_ASSIGNMENT((#242));
#122=EDGE_CURVE('',#98,#120,#243,.T.);
#123=PRESENTATION_STYLE_ASSIGNMENT((#244));
#124=VERTEX_POINT('',#245);
#125=PRESENTATION_STYLE_ASSIGNMENT((#246));
#126=EDGE_CURVE('',#148,#92,#247,.T.);
#127=PRESENTATION_STYLE_ASSIGNMENT((#248));
#128=EDGE_CURVE('',#98,#142,#249,.T.);
#129=PRESENTATION_STYLE_ASSIGNMENT((#250));
#130=EDGE_CURVE('',#134,#144,#251,.T.);
#131=PRESENTATION_STYLE_ASSIGNMENT((#252));
#132=ADVANCED_FACE('',(#253),#254,.T.);
#133=PRESENTATION_STYLE_ASSIGNMENT((#255));
#134=VERTEX_POINT('',#256);
#135=PRESENTATION_STYLE_ASSIGNMENT((#257));
#136=ADVANCED_FACE('',(#258),#259,.T.);
#137=PRESENTATION_STYLE_ASSIGNMENT((#260));
#138=MANIFOLD_SOLID_BREP('1',#261);
#139=PRESENTATION_STYLE_ASSIGNMENT((#262));
#140=EDGE_CURVE('',#144,#148,#263,.T.);
#141=PRESENTATION_STYLE_ASSIGNMENT((#264));
#142=VERTEX_POINT('',#265);
#143=PRESENTATION_STYLE_ASSIGNMENT((#266));
#144=VERTEX_POINT('',#267);
#145=PRESENTATION_STYLE_ASSIGNMENT((#268));
#146=ADVANCED_FACE('',(#269),#270,.T.);
#147=PRESENTATION_STYLE_ASSIGNMENT((#271));
#148=VERTEX_POINT('',#272);
#149=PRESENTATION_STYLE_ASSIGNMENT((#273));
#150=EDGE_CURVE('',#142,#98,#274,.T.);
#151=PRESENTATION_STYLE_ASSIGNMENT((#275));
#152=EDGE_CURVE('',#112,#86,#276,.T.);
#153=PRESENTATION_STYLE_ASSIGNMENT((#277));
#154=EDGE_CURVE('',#74,#106,#278,.T.);
#155=PRESENTATION_STYLE_ASSIGNMENT((#279));
#156=ADVANCED_FACE('',(#280),#281,.F.);
#157=PRESENTATION_STYLE_ASSIGNMENT((#282));
#158=VERTEX_POINT('',#283);
#159=PRESENTATION_STYLE_ASSIGNMENT((#284));
#160=EDGE_CURVE('',#92,#148,#285,.T.);
#161=PRESENTATION_STYLE_ASSIGNMENT((#286));
#162=ADVANCED_FACE('',(#287),#288,.T.);
#163=PRESENTATION_STYLE_ASSIGNMENT((#289));
#164=EDGE_CURVE('',#92,#134,#290,.T.);
#165=PRESENTATION_STYLE_ASSIGNMENT((#291));
#166=EDGE_CURVE('',#86,#142,#292,.T.);
#167=PRODUCT('1','1','PART-1-DESC',(#293));
#168=PRODUCT_DEFINITION('NONE','NONE',#294,#2);
#169=AXIS2_PLACEMENT_3D('',#295,#296,#297);
#172=LENGTH_MEASURE_WITH_UNIT(LENGTH_MEASURE(1.0),#298);
#175=DIMENSIONAL_EXPONENTS(1.0,0.0,0.0,0.0,0.0,0.0,0.0);
#177=DIMENSIONAL_EXPONENTS(0.0,0.0,0.0,0.0,0.0,0.0,0.0);
#183=CURVE_STYLE('',#299,POSITIVE_LENGTH_MEASURE(1.0E-006),#300);
#184=CIRCLE('',#301,14.0);
#185=POINT_STYLE(' ',#302,POSITIVE_LENGTH_MEASURE(1.0E-006),#303);
#186=CARTESIAN_POINT('',(-8.0,1.92938790876251E-015,2.99999999999997));
#187=SURFACE_STYLE_USAGE(.BOTH.,#304);
#188=FACE_BOUND('',#305,.T.);
#189=FACE_OUTER_BOUND('',#306,.T.);
#190=PLANE('',#307);
#191=SURFACE_STYLE_USAGE(.BOTH.,#308);
#192=FACE_BOUND('',#309,.T.);
#193=FACE_OUTER_BOUND('',#310,.T.);
#194=PLANE('',#311);
#195=SURFACE_STYLE_USAGE(.BOTH.,#312);
#196=FACE_OUTER_BOUND('',#313,.T.);
#197=FACE_BOUND('',#314,.T.);
#198=PLANE('',#315);
#199=SURFACE_STYLE_USAGE(.BOTH.,#316);
#200=FACE_OUTER_BOUND('',#317,.T.);
#201=CYLINDRICAL_SURFACE('',#318,8.0);
#202=SURFACE_STYLE_USAGE(.BOTH.,#319);
#203=FACE_OUTER_BOUND('',#320,.T.);
#204=CONICAL_SURFACE('',#321,13.5,0.785398163397434);
#205=POINT_STYLE(' ',#322,POSITIVE_LENGTH_MEASURE(1.0E-006),#323);
#206=CARTESIAN_POINT('',(14.0,5.43709646597176E-015,1.99999999999997));
#207=POINT_STYLE(' ',#324,POSITIVE_LENGTH_MEASURE(1.0E-006),#325);
#208=CARTESIAN_POINT('',(8.0,3.72264757062043E-015,-14.0));
#209=CURVE_STYLE('',#326,POSITIVE_LENGTH_MEASURE(1.0E-006),#327);
#210=CIRCLE('',#328,13.0);
#211=POINT_STYLE(' ',#329,POSITIVE_LENGTH_MEASURE(1.0E-006),#330);
#212=CARTESIAN_POINT('',(12.5,5.13094487751617E-015,-2.8421709430404E-014));
#213=CURVE_STYLE('',#331,POSITIVE_LENGTH_MEASURE(1.0E-006),#332);
#214=CIRCLE('',#333,13.0);
#215=SURFACE_STYLE_USAGE(.BOTH.,#334);
#216=FACE_OUTER_BOUND('',#335,.T.);
#217=CYLINDRICAL_SURFACE('',#336,12.5);
#218=POINT_STYLE(' ',#337,POSITIVE_LENGTH_MEASURE(1.0E-006),#338);
#219=CARTESIAN_POINT('',(-14.0,5.38520424100731E-016,-2.8421709430404E-014));
#220=CURVE_STYLE('',#339,POSITIVE_LENGTH_MEASURE(1.0E-006),#340);
#221=CIRCLE('',#341,8.0);
#222=CURVE_STYLE('',#342,POSITIVE_LENGTH_MEASURE(1.0E-006),#343);
#223=CIRCLE('',#344,14.0);
#224=CURVE_STYLE('',#345,POSITIVE_LENGTH_MEASURE(1.0E-006),#346);
#225=CIRCLE('',#347,8.0);
#226=POINT_STYLE(' ',#348,POSITIVE_LENGTH_MEASURE(1.0E-006),#349);
#227=CARTESIAN_POINT('',(8.0,4.76356297136945E-015,2.99999999999997));
#228=CURVE_STYLE('',#350,POSITIVE_LENGTH_MEASURE(1.0E-006),#351);
#229=LINE('',#352,#353);
#230=CURVE_STYLE('',#354,POSITIVE_LENGTH_MEASURE(1.0E-006),#355);
#231=CIRCLE('',#356,12.5);
#232=POINT_STYLE(' ',#357,POSITIVE_LENGTH_MEASURE(1.0E-006),#358);
#233=CARTESIAN_POINT('',(13.0,5.37586614828064E-015,2.99999999999997));
#234=CURVE_STYLE('',#359,POSITIVE_LENGTH_MEASURE(1.0E-006),#360);
#235=CIRCLE('',#361,8.0);
#236=CURVE_STYLE('',#362,POSITIVE_LENGTH_MEASURE(1.0E-006),#363);
#237=LINE('',#364,#365);
#238=CURVE_STYLE('',#366,POSITIVE_LENGTH_MEASURE(1.0E-006),#367);
#239=LINE('',#368,#369);
#240=POINT_STYLE(' ',#370,POSITIVE_LENGTH_MEASURE(1.0E-006),#371);
#241=CARTESIAN_POINT('',(-14.0,5.3852042410073E-016,1.99999999999997));
#242=CURVE_STYLE('',#372,POSITIVE_LENGTH_MEASURE(1.0E-006),#373);
#243=LINE('',#374,#375);
#244=POINT_STYLE(' ',#376,POSITIVE_LENGTH_MEASURE(1.0E-006),#377);
#245=CARTESIAN_POINT('',(-13.0,7.70331671544354E-016,2.99999999999997));
#246=CURVE_STYLE('',#378,POSITIVE_LENGTH_MEASURE(1.0E-006),#379);
#247=CIRCLE('',#380,12.5);
#248=CURVE_STYLE('',#381,POSITIVE_LENGTH_MEASURE(1.0E-006),#382);
#249=CIRCLE('',#383,14.0);
#250=CURVE_STYLE('',#384,POSITIVE_LENGTH_MEASURE(1.0E-006),#385);
#251=CIRCLE('',#386,12.5);
#252=SURFACE_STYLE_USAGE(.BOTH.,#387);
#253=FACE_OUTER_BOUND('',#388,.T.);
#254=CYLINDRICAL_SURFACE('',#389,14.0);
#255=POINT_STYLE(' ',#390,POSITIVE_LENGTH_MEASURE(1.0E-006),#391);
#256=CARTESIAN_POINT('',(12.5,4.2737204298405E-015,-14.0));
#257=SURFACE_STYLE_USAGE(.BOTH.,#392);
#258=FACE_OUTER_BOUND('',#393,.T.);
#259=CYLINDRICAL_SURFACE('',#394,12.5);
#260=SURFACE_STYLE_USAGE(.BOTH.,#395);
#261=CLOSED_SHELL('',(#132,#146,#156,#96,#76,#136,#78,#82,#80,#84,#162));
#262=CURVE_STYLE('',#396,POSITIVE_LENGTH_MEASURE(1.0E-006),#397);
#263=LINE('',#398,#399);
#264=POINT_STYLE(' ',#400,POSITIVE_LENGTH_MEASURE(1.0E-006),#401);
#265=CARTESIAN_POINT('',(14.0,5.31463583058952E-015,-2.8421709430404E-014));
#266=POINT_STYLE(' ',#402,POSITIVE_LENGTH_MEASURE(1.0E-006),#403);
#267=CARTESIAN_POINT('',(-12.5,8.86237295266169E-016,-14.0));
#268=SURFACE_STYLE_USAGE(.BOTH.,#404);
#269=FACE_OUTER_BOUND('',#405,.T.);
#270=CONICAL_SURFACE('',#406,13.5,0.785398163397434);
#271=POINT_STYLE(' ',#407,POSITIVE_LENGTH_MEASURE(1.0E-006),#408);
#272=CARTESIAN_POINT('',(-12.5,8.86237295266169E-016,-2.8421709430404E-014));
#273=CURVE_STYLE('',#409,POSITIVE_LENGTH_MEASURE(1.0E-006),#410);
#274=CIRCLE('',#411,14.0);
#275=CURVE_STYLE('',#412,POSITIVE_LENGTH_MEASURE(1.0E-006),#413);
#276=LINE('',#414,#415);
#277=CURVE_STYLE('',#416,POSITIVE_LENGTH_MEASURE(1.0E-006),#417);
#278=CIRCLE('',#418,8.0);
#279=SURFACE_STYLE_USAGE(.BOTH.,#419);
#280=FACE_OUTER_BOUND('',#420,.T.);
#281=CYLINDRICAL_SURFACE('',#421,8.0);
#282=POINT_STYLE(' ',#422,POSITIVE_LENGTH_MEASURE(1.0E-006),#423);
#283=CARTESIAN_POINT('',(-8.0,1.92938790876251E-015,-14.0));
#284=CURVE_STYLE('',#424,POSITIVE_LENGTH_MEASURE(1.0E-006),#425);
#285=CIRCLE('',#426,12.5);
#286=SURFACE_STYLE_USAGE(.BOTH.,#427);
#287=FACE_OUTER_BOUND('',#428,.T.);
#288=CYLINDRICAL_SURFACE('',#429,14.0);
#289=CURVE_STYLE('',#430,POSITIVE_LENGTH_MEASURE(1.0E-006),#431);
#290=LINE('',#432,#433);
#291=CURVE_STYLE('',#434,POSITIVE_LENGTH_MEASURE(1.0E-006),#435);
#292=LINE('',#436,#437);
#293=PRODUCT_CONTEXT('',#58,'mechanical');
#294=PRODUCT_DEFINITION_FORMATION_WITH_SPECIFIED_SOURCE(' ','NONE',#167,.NOT_KNOWN.);
#295=CARTESIAN_POINT('',(0.0,0.0,0.0));
#296=DIRECTION('',(0.0,0.0,1.0));
#297=DIRECTION('',(1.0,0.0,0.0));
#298= (NAMED_UNIT(#175)LENGTH_UNIT()SI_UNIT(.MILLI.,.METRE.));
#299=DRAUGHTING_PRE_DEFINED_CURVE_FONT('continuous');
#300=COLOUR_RGB('',0.509803950786591,0.509803950786591,0.588235318660736);
#301=AXIS2_PLACEMENT_3D('',#439,#440,#441);
#302=PRE_DEFINED_MARKER('');
#303=COLOUR_RGB('',0.509803950786591,0.509803950786591,0.588235318660736);
#304=SURFACE_SIDE_STYLE('',(#442));
#305=EDGE_LOOP('',(#443,#444));
#306=EDGE_LOOP('',(#445,#446));
#307=AXIS2_PLACEMENT_3D('',#447,#448,#449);
#308=SURFACE_SIDE_STYLE('',(#450));
#309=EDGE_LOOP('',(#451,#452));
#310=EDGE_LOOP('',(#453,#454));
#311=AXIS2_PLACEMENT_3D('',#455,#456,#457);
#312=SURFACE_SIDE_STYLE('',(#458));
#313=EDGE_LOOP('',(#459,#460));
#314=EDGE_LOOP('',(#461,#462));
#315=AXIS2_PLACEMENT_3D('',#463,#464,#465);
#316=SURFACE_SIDE_STYLE('',(#466));
#317=EDGE_LOOP('',(#467,#468,#469,#470));
#318=AXIS2_PLACEMENT_3D('',#471,#472,#473);
#319=SURFACE_SIDE_STYLE('',(#474));
#320=EDGE_LOOP('',(#475,#476,#477,#478));
#321=AXIS2_PLACEMENT_3D('',#479,#480,#481);
#322=PRE_DEFINED_MARKER('');
#323=COLOUR_RGB('',0.509803950786591,0.509803950786591,0.588235318660736);
#324=PRE_DEFINED_MARKER('');
#325=COLOUR_RGB('',0.509803950786591,0.509803950786591,0.588235318660736);
#326=DRAUGHTING_PRE_DEFINED_CURVE_FONT('continuous');
#327=COLOUR_RGB('',0.509803950786591,0.509803950786591,0.588235318660736);
#328=AXIS2_PLACEMENT_3D('',#482,#483,#484);
#329=PRE_DEFINED_MARKER('');
#330=COLOUR_RGB('',0.509803950786591,0.509803950786591,0.588235318660736);
#331=DRAUGHTING_PRE_DEFINED_CURVE_FONT('continuous');
#332=COLOUR_RGB('',0.509803950786591,0.509803950786591,0.588235318660736);
#333=AXIS2_PLACEMENT_3D('',#485,#486,#487);
#334=SURFACE_SIDE_STYLE('',(#488));
#335=EDGE_LOOP('',(#489,#490,#491,#492));
#336=AXIS2_PLACEMENT_3D('',#493,#494,#495);
#337=PRE_DEFINED_MARKER('');
#338=COLOUR_RGB('',0.509803950786591,0.509803950786591,0.588235318660736);
#339=DRAUGHTING_PRE_DEFINED_CURVE_FONT('continuous');
#340=COLOUR_RGB('',0.509803950786591,0.509803950786591,0.588235318660736);
#341=AXIS2_PLACEMENT_3D('',#496,#497,#498);
#342=DRAUGHTING_PRE_DEFINED_CURVE_FONT('continuous');
#343=COLOUR_RGB('',0.509803950786591,0.509803950786591,0.588235318660736);
#344=AXIS2_PLACEMENT_3D('',#499,#500,#501);
#345=DRAUGHTING_PRE_DEFINED_CURVE_FONT('continuous');
#346=COLOUR_RGB('',0.509803950786591,0.509803950786591,0.588235318660736);
#347=AXIS2_PLACEMENT_3D('',#502,#503,#504);
#348=PRE_DEFINED_MARKER('');
#349=COLOUR_RGB('',0.509803950786591,0.509803950786591,0.588235318660736);
#350=DRAUGHTING_PRE_DEFINED_CURVE_FONT('continuous');
#351=COLOUR_RGB('',0.509803950786591,0.509803950786591,0.588235318660736);
#352=CARTESIAN_POINT('',(8.0,5.63836786786059E-015,-5.50000000000003));
#353=VECTOR('',#505,1.0);
#354=DRAUGHTING_PRE_DEFINED_CURVE_FONT('continuous');
#355=COLOUR_RGB('',0.509803950786591,0.509803950786591,0.588235318660736);
#356=AXIS2_PLACEMENT_3D('',#506,#507,#508);
#357=PRE_DEFINED_MARKER('');
#358=COLOUR_RGB('',0.509803950786591,0.509803950786591,0.588235318660736);
#359=DRAUGHTING_PRE_DEFINED_CURVE_FONT('continuous');
#360=COLOUR_RGB('',0.509803950786591,0.509803950786591,0.588235318660736);
#361=AXIS2_PLACEMENT_3D('',#509,#510,#511);
#362=DRAUGHTING_PRE_DEFINED_CURVE_FONT('continuous');
#363=COLOUR_RGB('',0.509803950786591,0.509803950786591,0.588235318660736);
#364=CARTESIAN_POINT('',(-13.5,6.54426047822542E-016,2.49999999999997));
#365=VECTOR('',#512,1.0);
#366=DRAUGHTING_PRE_DEFINED_CURVE_FONT('continuous');
#367=COLOUR_RGB('',0.509803950786591,0.509803950786591,0.588235318660736);
#368=CARTESIAN_POINT('',(-8.0,1.92938790876251E-015,-5.50000000000003));
#369=VECTOR('',#513,1.0);
#370=PRE_DEFINED_MARKER('');
#371=COLOUR_RGB('',0.509803950786591,0.509803950786591,0.588235318660736);
#372=DRAUGHTING_PRE_DEFINED_CURVE_FONT('continuous');
#373=COLOUR_RGB('',0.509803950786591,0.509803950786591,0.588235318660736);
#374=CARTESIAN_POINT('',(-14.0,5.38520424100731E-016,0.999999999999972));
#375=VECTOR('',#514,1.0);
#376=PRE_DEFINED_MARKER('');
#377=COLOUR_RGB('',0.509803950786591,0.509803950786591,0.588235318660736);
#378=DRAUGHTING_PRE_DEFINED_CURVE_FONT('continuous');
#379=COLOUR_RGB('',0.509803950786591,0.509803950786591,0.588235318660736);
#380=AXIS2_PLACEMENT_3D('',#515,#516,#517);
#381=DRAUGHTING_PRE_DEFINED_CURVE_FONT('continuous');
#382=COLOUR_RGB('',0.509803950786591,0.509803950786591,0.588235318660736);
#383=AXIS2_PLACEMENT_3D('',#518,#519,#520);
#384=DRAUGHTING_PRE_DEFINED_CURVE_FONT('continuous');
#385=COLOUR_RGB('',0.509803950786591,0.509803950786591,0.588235318660736);
#386=AXIS2_PLACEMENT_3D('',#521,#522,#523);
#387=SURFACE_SIDE_STYLE('',(#524));
#388=EDGE_LOOP('',(#525,#526,#527,#528));
#389=AXIS2_PLACEMENT_3D('',#529,#530,#531);
#390=PRE_DEFINED_MARKER('');
#391=COLOUR_RGB('',0.509803950786591,0.509803950786591,0.588235318660736);
#392=SURFACE_SIDE_STYLE('',(#532));
#393=EDGE_LOOP('',(#533,#534,#535,#536));
#394=AXIS2_PLACEMENT_3D('',#537,#538,#539);
#395=SURFACE_SIDE_STYLE('',(#540));
#396=DRAUGHTING_PRE_DEFINED_CURVE_FONT('continuous');
#397=COLOUR_RGB('',0.509803950786591,0.509803950786591,0.588235318660736);
#398=CARTESIAN_POINT('',(-12.5,8.86237295266169E-016,-7.00000000000003));
#399=VECTOR('',#541,1.0);
#400=PRE_DEFINED_MARKER('');
#401=COLOUR_RGB('',0.509803950786591,0.509803950786591,0.588235318660736);
#402=PRE_DEFINED_MARKER('');
#403=COLOUR_RGB('',0.509803950786591,0.509803950786591,0.588235318660736);
#404=SURFACE_SIDE_STYLE('',(#542));
#405=EDGE_LOOP('',(#543,#544,#545,#546));
#406=AXIS2_PLACEMENT_3D('',#547,#548,#549);
#407=PRE_DEFINED_MARKER('');
#408=COLOUR_RGB('',0.509803950786591,0.509803950786591,0.588235318660736);
#409=DRAUGHTING_PRE_DEFINED_CURVE_FONT('continuous');
#410=COLOUR_RGB('',0.509803950786591,0.509803950786591,0.588235318660736);
#411=AXIS2_PLACEMENT_3D('',#550,#551,#552);
#412=DRAUGHTING_PRE_DEFINED_CURVE_FONT('continuous');
#413=COLOUR_RGB('',0.509803950786591,0.509803950786591,0.588235318660736);
#414=CARTESIAN_POINT('',(13.5,6.91332972880056E-015,2.49999999999997));
#415=VECTOR('',#553,1.0);
#416=DRAUGHTING_PRE_DEFINED_CURVE_FONT('continuous');
#417=COLOUR_RGB('',0.509803950786591,0.509803950786591,0.588235318660736);
#418=AXIS2_PLACEMENT_3D('',#554,#555,#556);
#419=SURFACE_SIDE_STYLE('',(#557));
#420=EDGE_LOOP('',(#558,#559,#560,#561));
#421=AXIS2_PLACEMENT_3D('',#562,#563,#564);
#422=PRE_DEFINED_MARKER('');
#423=COLOUR_RGB('',0.509803950786591,0.509803950786591,0.588235318660736);
#424=DRAUGHTING_PRE_DEFINED_CURVE_FONT('continuous');
#425=COLOUR_RGB('',0.509803950786591,0.509803950786591,0.588235318660736);
#426=AXIS2_PLACEMENT_3D('',#565,#566,#567);
#427=SURFACE_SIDE_STYLE('',(#568));
#428=EDGE_LOOP('',(#569,#570,#571,#572));
#429=AXIS2_PLACEMENT_3D('',#573,#574,#575);
#430=DRAUGHTING_PRE_DEFINED_CURVE_FONT('continuous');
#431=COLOUR_RGB('',0.509803950786591,0.509803950786591,0.588235318660736);
#432=CARTESIAN_POINT('',(12.5,6.68151848135693E-015,-7.00000000000003));
#433=VECTOR('',#576,1.0);
#434=DRAUGHTING_PRE_DEFINED_CURVE_FONT('continuous');
#435=COLOUR_RGB('',0.509803950786591,0.509803950786591,0.588235318660736);
#436=CARTESIAN_POINT('',(14.0,7.02923535252237E-015,0.999999999999972));
#437=VECTOR('',#577,1.0);
#439=CARTESIAN_POINT('',(0.0,3.78387788831155E-015,1.99999999999997));
#440=DIRECTION('',(0.0,0.0,-1.0));
#441=DIRECTION('',(1.0,1.09350612061392E-016,0.0));
#442=SURFACE_STYLE_FILL_AREA(#578);
#443=ORIENTED_EDGE('',*,*,#160,.F.);
#444=ORIENTED_EDGE('',*,*,#126,.F.);
#445=ORIENTED_EDGE('',*,*,#150,.T.);
#446=ORIENTED_EDGE('',*,*,#128,.T.);
#447=CARTESIAN_POINT('',(13.25,5.22279035405285E-015,-2.8421709430404E-014));
#448=DIRECTION('',(0.0,0.0,-1.0));
#449=DIRECTION('',(1.0,1.22460635382238E-016,0.0));
#450=SURFACE_STYLE_FILL_AREA(#579);
#451=ORIENTED_EDGE('',*,*,#104,.F.);
#452=ORIENTED_EDGE('',*,*,#114,.F.);
#453=ORIENTED_EDGE('',*,*,#130,.T.);
#454=ORIENTED_EDGE('',*,*,#110,.T.);
#455=CARTESIAN_POINT('',(10.25,3.99818400023047E-015,-14.0));
#456=DIRECTION('',(0.0,0.0,-1.0));
#457=DIRECTION('',(1.0,1.22460635382238E-016,0.0));
#458=SURFACE_STYLE_FILL_AREA(#580);
#459=ORIENTED_EDGE('',*,*,#90,.F.);
#460=ORIENTED_EDGE('',*,*,#94,.F.);
#461=ORIENTED_EDGE('',*,*,#100,.T.);
#462=ORIENTED_EDGE('',*,*,#154,.T.);
#463=CARTESIAN_POINT('',(10.5,5.06971455982505E-015,2.99999999999997));
#464=DIRECTION('',(0.0,0.0,1.0));
#465=DIRECTION('',(-1.0,-1.22460635382238E-016,0.0));
#466=SURFACE_STYLE_FILL_AREA(#581);
#467=ORIENTED_EDGE('',*,*,#108,.T.);
#468=ORIENTED_EDGE('',*,*,#104,.T.);
#469=ORIENTED_EDGE('',*,*,#118,.T.);
#470=ORIENTED_EDGE('',*,*,#100,.F.);
#471=CARTESIAN_POINT('',(0.0,3.78387788831155E-015,-5.50000000000003));
#472=DIRECTION('',(-0.0,-0.0,1.0));
#473=DIRECTION('',(1.0,1.09350612061392E-016,0.0));
#474=SURFACE_STYLE_FILL_AREA(#582);
#475=ORIENTED_EDGE('',*,*,#152,.T.);
#476=ORIENTED_EDGE('',*,*,#72,.F.);
#477=ORIENTED_EDGE('',*,*,#116,.T.);
#478=ORIENTED_EDGE('',*,*,#94,.T.);
#479=CARTESIAN_POINT('',(0.0,3.78387788831155E-015,2.49999999999997));
#480=DIRECTION('',(0.0,-0.0,-1.0));
#481=DIRECTION('',(1.0,1.09350612061392E-016,0.0));
#482=CARTESIAN_POINT('',(0.0,3.78387788831155E-015,2.99999999999997));
#483=DIRECTION('',(0.0,0.0,-1.0));
#484=DIRECTION('',(1.0,1.09350612061392E-016,0.0));
#485=CARTESIAN_POINT('',(0.0,3.78387788831155E-015,2.99999999999997));
#486=DIRECTION('',(0.0,0.0,-1.0));
#487=DIRECTION('',(1.0,1.09350612061392E-016,0.0));
#488=SURFACE_STYLE_FILL_AREA(#583);
#489=ORIENTED_EDGE('',*,*,#164,.F.);
#490=ORIENTED_EDGE('',*,*,#160,.T.);
#491=ORIENTED_EDGE('',*,*,#140,.F.);
#492=ORIENTED_EDGE('',*,*,#130,.F.);
#493=CARTESIAN_POINT('',(0.0,3.78387788831155E-015,-7.00000000000003));
#494=DIRECTION('',(-0.0,-0.0,1.0));
#495=DIRECTION('',(1.0,1.09350612061392E-016,0.0));
#496=CARTESIAN_POINT('',(0.0,3.78387788831155E-015,2.99999999999997));
#497=DIRECTION('',(0.0,0.0,-1.0));
#498=DIRECTION('',(1.0,1.09350612061392E-016,0.0));
#499=CARTESIAN_POINT('',(0.0,3.78387788831155E-015,1.99999999999997));
#500=DIRECTION('',(0.0,0.0,-1.0));
#501=DIRECTION('',(1.0,1.09350612061392E-016,0.0));
#502=CARTESIAN_POINT('',(0.0,3.78387788831155E-015,-14.0));
#503=DIRECTION('',(0.0,0.0,-1.0));
#504=DIRECTION('',(1.0,1.09350612061392E-016,0.0));
#505=DIRECTION('',(-0.0,-0.0,-1.0));
#506=CARTESIAN_POINT('',(0.0,3.78387788831155E-015,-14.0));
#507=DIRECTION('',(0.0,0.0,-1.0));
#508=DIRECTION('',(1.0,1.09350612061392E-016,0.0));
#509=CARTESIAN_POINT('',(0.0,3.78387788831155E-015,-14.0));
#510=DIRECTION('',(0.0,0.0,-1.0));
#511=DIRECTION('',(1.0,1.09350612061392E-016,0.0));
#512=DIRECTION('',(0.707106781186537,1.63915305022701E-016,0.707106781186558));
#513=DIRECTION('',(-0.0,-0.0,1.0));
#514=DIRECTION('',(-0.0,-0.0,1.0));
#515=CARTESIAN_POINT('',(0.0,3.78387788831155E-015,-2.8421709430404E-014));
#516=DIRECTION('',(0.0,0.0,-1.0));
#517=DIRECTION('',(1.0,1.09350612061392E-016,0.0));
#518=CARTESIAN_POINT('',(0.0,3.78387788831155E-015,-2.8421709430404E-014));
#519=DIRECTION('',(0.0,0.0,-1.0));
#520=DIRECTION('',(1.0,1.09350612061392E-016,0.0));
#521=CARTESIAN_POINT('',(0.0,3.78387788831155E-015,-14.0));
#522=DIRECTION('',(0.0,0.0,-1.0));
#523=DIRECTION('',(1.0,1.09350612061392E-016,0.0));
#524=SURFACE_STYLE_FILL_AREA(#584);
#525=ORIENTED_EDGE('',*,*,#166,.F.);
#526=ORIENTED_EDGE('',*,*,#102,.T.);
#527=ORIENTED_EDGE('',*,*,#122,.F.);
#528=ORIENTED_EDGE('',*,*,#150,.F.);
#529=CARTESIAN_POINT('',(0.0,3.78387788831155E-015,0.999999999999972));
#530=DIRECTION('',(-0.0,-0.0,1.0));
#531=DIRECTION('',(1.0,1.09350612061392E-016,0.0));
#532=SURFACE_STYLE_FILL_AREA(#585);
#533=ORIENTED_EDGE('',*,*,#164,.T.);
#534=ORIENTED_EDGE('',*,*,#110,.F.);
#535=ORIENTED_EDGE('',*,*,#140,.T.);
#536=ORIENTED_EDGE('',*,*,#126,.T.);
#537=CARTESIAN_POINT('',(0.0,3.78387788831155E-015,-7.00000000000003));
#538=DIRECTION('',(-0.0,-0.0,1.0));
#539=DIRECTION('',(1.0,1.09350612061392E-016,0.0));
#540=SURFACE_STYLE_FILL_AREA(#586);
#541=DIRECTION('',(-0.0,-0.0,1.0));
#542=SURFACE_STYLE_FILL_AREA(#587);
#543=ORIENTED_EDGE('',*,*,#152,.F.);
#544=ORIENTED_EDGE('',*,*,#90,.T.);
#545=ORIENTED_EDGE('',*,*,#116,.F.);
#546=ORIENTED_EDGE('',*,*,#102,.F.);
#547=CARTESIAN_POINT('',(0.0,3.78387788831155E-015,2.49999999999997));
#548=DIRECTION('',(0.0,-0.0,-1.0));
#549=DIRECTION('',(1.0,1.09350612061392E-016,0.0));
#550=CARTESIAN_POINT('',(0.0,3.78387788831155E-015,-2.8421709430404E-014));
#551=DIRECTION('',(0.0,0.0,-1.0));
#552=DIRECTION('',(1.0,1.09350612061392E-016,0.0));
#553=DIRECTION('',(0.707106781186537,1.63915305022701E-016,-0.707106781186558));
#554=CARTESIAN_POINT('',(0.0,3.78387788831155E-015,2.99999999999997));
#555=DIRECTION('',(0.0,0.0,-1.0));
#556=DIRECTION('',(1.0,1.09350612061392E-016,0.0));
#557=SURFACE_STYLE_FILL_AREA(#588);
#558=ORIENTED_EDGE('',*,*,#108,.F.);
#559=ORIENTED_EDGE('',*,*,#154,.F.);
#560=ORIENTED_EDGE('',*,*,#118,.F.);
#561=ORIENTED_EDGE('',*,*,#114,.T.);
#562=CARTESIAN_POINT('',(0.0,3.78387788831155E-015,-5.50000000000003));
#563=DIRECTION('',(-0.0,-0.0,1.0));
#564=DIRECTION('',(1.0,1.09350612061392E-016,0.0));
#565=CARTESIAN_POINT('',(0.0,3.78387788831155E-015,-2.8421709430404E-014));
#566=DIRECTION('',(0.0,0.0,-1.0));
#567=DIRECTION('',(1.0,1.09350612061392E-016,0.0));
#568=SURFACE_STYLE_FILL_AREA(#589);
#569=ORIENTED_EDGE('',*,*,#166,.T.);
#570=ORIENTED_EDGE('',*,*,#128,.F.);
#571=ORIENTED_EDGE('',*,*,#122,.T.);
#572=ORIENTED_EDGE('',*,*,#72,.T.);
#573=CARTESIAN_POINT('',(0.0,3.78387788831155E-015,0.999999999999972));
#574=DIRECTION('',(-0.0,-0.0,1.0));
#575=DIRECTION('',(1.0,1.09350612061392E-016,0.0));
#576=DIRECTION('',(0.0,0.0,-1.0));
#577=DIRECTION('',(0.0,0.0,-1.0));
#578=FILL_AREA_STYLE('',(#590));
#579=FILL_AREA_STYLE('',(#591));
#580=FILL_AREA_STYLE('',(#592));
#581=FILL_AREA_STYLE('',(#593));
#582=FILL_AREA_STYLE('',(#594));
#583=FILL_AREA_STYLE('',(#595));
#584=FILL_AREA_STYLE('',(#596));
#585=FILL_AREA_STYLE('',(#597));
#586=FILL_AREA_STYLE('',(#598));
#587=FILL_AREA_STYLE('',(#599));
#588=FILL_AREA_STYLE('',(#600));
#589=FILL_AREA_STYLE('',(#601));
#590=FILL_AREA_STYLE_COLOUR('',#602);
#591=FILL_AREA_STYLE_COLOUR('',#603);
#592=FILL_AREA_STYLE_COLOUR('',#604);
#593=FILL_AREA_STYLE_COLOUR('',#605);
#594=FILL_AREA_STYLE_COLOUR('',#606);
#595=FILL_AREA_STYLE_COLOUR('',#607);
#596=FILL_AREA_STYLE_COLOUR('',#608);
#597=FILL_AREA_STYLE_COLOUR('',#609);
#598=FILL_AREA_STYLE_COLOUR('',#610);
#599=FILL_AREA_STYLE_COLOUR('',#611);
#600=FILL_AREA_STYLE_COLOUR('',#612);
#601=FILL_AREA_STYLE_COLOUR('',#613);
#602=COLOUR_RGB('',0.509803950786591,0.509803950786591,0.588235318660736);
#603=COLOUR_RGB('',0.509803950786591,0.509803950786591,0.588235318660736);
#604=COLOUR_RGB('',0.509803950786591,0.509803950786591,0.588235318660736);
#605=COLOUR_RGB('',0.509803950786591,0.509803950786591,0.588235318660736);
#606=COLOUR_RGB('',0.509803950786591,0.509803950786591,0.588235318660736);
#607=COLOUR_RGB('',0.509803950786591,0.509803950786591,0.588235318660736);
#608=COLOUR_RGB('',0.509803950786591,0.509803950786591,0.588235318660736);
#609=COLOUR_RGB('',0.509803950786591,0.509803950786591,0.588235318660736);
#610=COLOUR_RGB('',0.509803950786591,0.509803950786591,0.588235318660736);
#611=COLOUR_RGB('',0.509803950786591,0.509803950786591,0.588235318660736);
#612=COLOUR_RGB('',0.509803950786591,0.509803950786591,0.588235318660736);
#613=COLOUR_RGB('',0.509803950786591,0.509803950786591,0.588235318660736);
ENDSEC;
END-ISO-10303-21;
