ISO-10303-21;
HEADER;
FILE_DESCRIPTION(('STEP AP214'),'1');
FILE_NAME('HALDERN_EH_22120_0636.stp','2017-07-04T09:11:26',('TraceParts'),('TraceParts S.A.'),'Spatial InterOp 3D',' ',' ');
FILE_SCHEMA(('automotive_design'));
ENDSEC;
DATA;
#1=MECHANICAL_DESIGN_GEOMETRIC_PRESENTATION_REPRESENTATION(' ',(#10,#11,#12,#13,#14,#15),#6);
#2=PRODUCT_DEFINITION_CONTEXT('',#16,'design');
#3=APPLICATION_PROTOCOL_DEFINITION('INTERNATIONAL STANDARD','automotive_design',1994,#16);
#4=PRODUCT_CATEGORY_RELATIONSHIP('NONE','NONE',#17,#18);
#5=SHAPE_DEFINITION_REPRESENTATION(#19,#20);
#6= (GEOMETRIC_REPRESENTATION_CONTEXT(3)GLOBAL_UNCERTAINTY_ASSIGNED_CONTEXT((#23))GLOBAL_UNIT_ASSIGNED_CONTEXT((#25,#26,#27))REPRESENTATION_CONTEXT('NONE','WORKSPACE'));
#10=STYLED_ITEM('',(#29),#30);
#11=STYLED_ITEM('',(#31),#32);
#12=STYLED_ITEM('',(#33),#34);
#13=STYLED_ITEM('',(#35),#36);
#14=STYLED_ITEM('',(#37),#38);
#15=STYLED_ITEM('',(#39),#40);
#16=APPLICATION_CONTEXT(' ');
#17=PRODUCT_CATEGORY('part','NONE');
#18=PRODUCT_RELATED_PRODUCT_CATEGORY('detail',' ',(#41));
#19=PRODUCT_DEFINITION_SHAPE('NONE','NONE',#42);
#20=ADVANCED_BREP_SHAPE_REPRESENTATION('HALDERN_EH_22120_0636',(#43,#44),#6);
#23=UNCERTAINTY_MEASURE_WITH_UNIT(LENGTH_MEASURE(1.0E-006),#25,'','');
#25= (CONVERSION_BASED_UNIT('MILLIMETRE',#47)LENGTH_UNIT()NAMED_UNIT(#50));
#26= (NAMED_UNIT(#52)PLANE_ANGLE_UNIT()SI_UNIT($,.RADIAN.));
#27= (NAMED_UNIT(#52)SOLID_ANGLE_UNIT()SI_UNIT($,.STERADIAN.));
#29=PRESENTATION_STYLE_ASSIGNMENT((#58));
#30=ADVANCED_FACE('',(#59),#60,.F.);
#31=PRESENTATION_STYLE_ASSIGNMENT((#61));
#32=ADVANCED_FACE('',(#62),#63,.T.);
#33=PRESENTATION_STYLE_ASSIGNMENT((#64));
#34=ADVANCED_FACE('',(#65),#66,.T.);
#35=PRESENTATION_STYLE_ASSIGNMENT((#67));
#36=ADVANCED_FACE('',(#68,#69),#70,.T.);
#37=PRESENTATION_STYLE_ASSIGNMENT((#71));
#38=ADVANCED_FACE('',(#72),#73,.F.);
#39=PRESENTATION_STYLE_ASSIGNMENT((#74));
#40=ADVANCED_FACE('',(#75,#76),#77,.T.);
#41=PRODUCT('HALDERN_EH_22120_0636','HALDERN_EH_22120_0636','PART-HALDERN_EH_22120_0636-DESC',(#78));
#42=PRODUCT_DEFINITION('NONE','NONE',#79,#2);
#43=MANIFOLD_SOLID_BREP('HALDERN_EH_22120_0636',#80);
#44=AXIS2_PLACEMENT_3D('',#81,#82,#83);
#47=LENGTH_MEASURE_WITH_UNIT(LENGTH_MEASURE(1.0),#84);
#50=DIMENSIONAL_EXPONENTS(1.0,0.0,0.0,0.0,0.0,0.0,0.0);
#52=DIMENSIONAL_EXPONENTS(0.0,0.0,0.0,0.0,0.0,0.0,0.0);
#58=SURFACE_STYLE_USAGE(.BOTH.,#85);
#59=FACE_OUTER_BOUND('',#86,.T.);
#60=CYLINDRICAL_SURFACE('',#87,4.0);
#61=SURFACE_STYLE_USAGE(.BOTH.,#88);
#62=FACE_OUTER_BOUND('',#89,.T.);
#63=CYLINDRICAL_SURFACE('',#90,5.0);
#64=SURFACE_STYLE_USAGE(.BOTH.,#91);
#65=FACE_OUTER_BOUND('',#92,.T.);
#66=CYLINDRICAL_SURFACE('',#93,5.0);
#67=SURFACE_STYLE_USAGE(.BOTH.,#94);
#68=FACE_BOUND('',#95,.T.);
#69=FACE_OUTER_BOUND('',#96,.T.);
#70=PLANE('',#97);
#71=SURFACE_STYLE_USAGE(.BOTH.,#98);
#72=FACE_OUTER_BOUND('',#99,.T.);
#73=CYLINDRICAL_SURFACE('',#100,4.0);
#74=SURFACE_STYLE_USAGE(.BOTH.,#101);
#75=FACE_OUTER_BOUND('',#102,.T.);
#76=FACE_BOUND('',#103,.T.);
#77=PLANE('',#104);
#78=PRODUCT_CONTEXT('',#16,'mechanical');
#79=PRODUCT_DEFINITION_FORMATION_WITH_SPECIFIED_SOURCE(' ','NONE',#41,.NOT_KNOWN.);
#80=CLOSED_SHELL('',(#30,#32,#34,#36,#38,#40));
#81=CARTESIAN_POINT('',(0.0,0.0,0.0));
#82=DIRECTION('',(0.0,0.0,1.0));
#83=DIRECTION('',(1.0,0.0,0.0));
#84= (NAMED_UNIT(#50)LENGTH_UNIT()SI_UNIT(.MILLI.,.METRE.));
#85=SURFACE_SIDE_STYLE('',(#106));
#86=EDGE_LOOP('',(#107,#108,#109,#110));
#87=AXIS2_PLACEMENT_3D('',#111,#112,#113);
#88=SURFACE_SIDE_STYLE('',(#114));
#89=EDGE_LOOP('',(#115,#116,#117,#118));
#90=AXIS2_PLACEMENT_3D('',#119,#120,#121);
#91=SURFACE_SIDE_STYLE('',(#122));
#92=EDGE_LOOP('',(#123,#124,#125,#126));
#93=AXIS2_PLACEMENT_3D('',#127,#128,#129);
#94=SURFACE_SIDE_STYLE('',(#130));
#95=EDGE_LOOP('',(#131,#132));
#96=EDGE_LOOP('',(#133,#134));
#97=AXIS2_PLACEMENT_3D('',#135,#136,#137);
#98=SURFACE_SIDE_STYLE('',(#138));
#99=EDGE_LOOP('',(#139,#140,#141,#142));
#100=AXIS2_PLACEMENT_3D('',#143,#144,#145);
#101=SURFACE_SIDE_STYLE('',(#146));
#102=EDGE_LOOP('',(#147,#148));
#103=EDGE_LOOP('',(#149,#150));
#104=AXIS2_PLACEMENT_3D('',#151,#152,#153);
#106=SURFACE_STYLE_FILL_AREA(#154);
#107=ORIENTED_EDGE('',*,*,#155,.F.);
#108=ORIENTED_EDGE('',*,*,#156,.F.);
#109=ORIENTED_EDGE('',*,*,#157,.F.);
#110=ORIENTED_EDGE('',*,*,#158,.T.);
#111=CARTESIAN_POINT('',(1.83690953073357E-016,1.83690953073357E-016,3.0));
#112=DIRECTION('',(6.12303176911189E-017,6.12303176911189E-017,1.0));
#113=DIRECTION('',(3.74915180455534E-033,-1.0,6.12303176911189E-017));
#114=SURFACE_STYLE_FILL_AREA(#159);
#115=ORIENTED_EDGE('',*,*,#160,.F.);
#116=ORIENTED_EDGE('',*,*,#161,.T.);
#117=ORIENTED_EDGE('',*,*,#162,.F.);
#118=ORIENTED_EDGE('',*,*,#163,.F.);
#119=CARTESIAN_POINT('',(1.83690953073357E-016,1.83690953073357E-016,3.0));
#120=DIRECTION('',(6.12303176911189E-017,6.12303176911189E-017,1.0));
#121=DIRECTION('',(3.74915180455534E-033,-1.0,6.12303176911189E-017));
#122=SURFACE_STYLE_FILL_AREA(#164);
#123=ORIENTED_EDGE('',*,*,#160,.T.);
#124=ORIENTED_EDGE('',*,*,#165,.F.);
#125=ORIENTED_EDGE('',*,*,#162,.T.);
#126=ORIENTED_EDGE('',*,*,#166,.T.);
#127=CARTESIAN_POINT('',(1.83690953073357E-016,1.83690953073357E-016,3.0));
#128=DIRECTION('',(6.12303176911189E-017,6.12303176911189E-017,1.0));
#129=DIRECTION('',(3.74915180455534E-033,-1.0,6.12303176911189E-017));
#130=SURFACE_STYLE_FILL_AREA(#167);
#131=ORIENTED_EDGE('',*,*,#168,.F.);
#132=ORIENTED_EDGE('',*,*,#158,.F.);
#133=ORIENTED_EDGE('',*,*,#163,.T.);
#134=ORIENTED_EDGE('',*,*,#165,.T.);
#135=CARTESIAN_POINT('',(3.67381906146713E-016,-4.5,6.0));
#136=DIRECTION('',(6.12303176911189E-017,6.12303176911189E-017,1.0));
#137=DIRECTION('',(3.74915180455534E-033,-1.0,6.12303176911189E-017));
#138=SURFACE_STYLE_FILL_AREA(#169);
#139=ORIENTED_EDGE('',*,*,#155,.T.);
#140=ORIENTED_EDGE('',*,*,#168,.T.);
#141=ORIENTED_EDGE('',*,*,#157,.T.);
#142=ORIENTED_EDGE('',*,*,#170,.F.);
#143=CARTESIAN_POINT('',(1.83690953073357E-016,1.83690953073357E-016,3.0));
#144=DIRECTION('',(6.12303176911189E-017,6.12303176911189E-017,1.0));
#145=DIRECTION('',(3.74915180455534E-033,-1.0,6.12303176911189E-017));
#146=SURFACE_STYLE_FILL_AREA(#171);
#147=ORIENTED_EDGE('',*,*,#161,.F.);
#148=ORIENTED_EDGE('',*,*,#166,.F.);
#149=ORIENTED_EDGE('',*,*,#170,.T.);
#150=ORIENTED_EDGE('',*,*,#156,.T.);
#151=CARTESIAN_POINT('',(1.6871183120499E-032,-4.5,2.75536429610035E-016));
#152=DIRECTION('',(-6.12303176911189E-017,-6.12303176911189E-017,-1.0));
#153=DIRECTION('',(-3.74915180455534E-033,1.0,-6.12303176911189E-017));
#154=FILL_AREA_STYLE('',(#172));
#155=EDGE_CURVE('',#173,#174,#175,.T.);
#156=EDGE_CURVE('',#176,#173,#177,.T.);
#157=EDGE_CURVE('',#178,#176,#179,.T.);
#158=EDGE_CURVE('',#178,#174,#180,.T.);
#159=FILL_AREA_STYLE('',(#181));
#160=EDGE_CURVE('',#182,#183,#184,.T.);
#161=EDGE_CURVE('',#182,#185,#186,.T.);
#162=EDGE_CURVE('',#187,#185,#188,.T.);
#163=EDGE_CURVE('',#183,#187,#189,.T.);
#164=FILL_AREA_STYLE('',(#190));
#165=EDGE_CURVE('',#187,#183,#191,.T.);
#166=EDGE_CURVE('',#185,#182,#192,.T.);
#167=FILL_AREA_STYLE('',(#193));
#168=EDGE_CURVE('',#174,#178,#194,.T.);
#169=FILL_AREA_STYLE('',(#195));
#170=EDGE_CURVE('',#173,#176,#196,.T.);
#171=FILL_AREA_STYLE('',(#197));
#172=FILL_AREA_STYLE_COLOUR('',#198);
#173=VERTEX_POINT('',#199);
#174=VERTEX_POINT('',#200);
#175=LINE('',#201,#202);
#176=VERTEX_POINT('',#203);
#177=CIRCLE('',#204,4.0);
#178=VERTEX_POINT('',#205);
#179=LINE('',#206,#207);
#180=CIRCLE('',#208,4.0);
#181=FILL_AREA_STYLE_COLOUR('',#209);
#182=VERTEX_POINT('',#210);
#183=VERTEX_POINT('',#211);
#184=LINE('',#212,#213);
#185=VERTEX_POINT('',#214);
#186=CIRCLE('',#215,5.0);
#187=VERTEX_POINT('',#216);
#188=LINE('',#217,#218);
#189=CIRCLE('',#219,5.0);
#190=FILL_AREA_STYLE_COLOUR('',#220);
#191=CIRCLE('',#221,5.0);
#192=CIRCLE('',#222,5.0);
#193=FILL_AREA_STYLE_COLOUR('',#223);
#194=CIRCLE('',#224,4.0);
#195=FILL_AREA_STYLE_COLOUR('',#225);
#196=CIRCLE('',#226,4.0);
#197=FILL_AREA_STYLE_COLOUR('',#227);
#198=COLOUR_RGB('',0.752941191196442,0.752941191196442,0.752941191196442);
#199=CARTESIAN_POINT('',(1.49966072182214E-032,-4.0,2.44921270764475E-016));
#200=CARTESIAN_POINT('',(3.67381906146713E-016,-4.0,6.0));
#201=CARTESIAN_POINT('',(-3.06151588455594E-016,-4.0,3.0));
#202=VECTOR('',#228,1.0);
#203=CARTESIAN_POINT('',(4.89842541528951E-016,4.0,-2.44921270764476E-016));
#204=AXIS2_PLACEMENT_3D('',#229,#230,#231);
#205=CARTESIAN_POINT('',(8.57224447675664E-016,4.0,6.0));
#206=CARTESIAN_POINT('',(6.73533494602307E-016,4.0,3.0));
#207=VECTOR('',#232,1.0);
#208=AXIS2_PLACEMENT_3D('',#233,#234,#235);
#209=COLOUR_RGB('',0.752941191196442,0.752941191196442,0.752941191196442);
#210=CARTESIAN_POINT('',(1.87457590227767E-032,-5.0,3.06151588455594E-016));
#211=CARTESIAN_POINT('',(3.67381906146713E-016,-5.0,6.0));
#212=CARTESIAN_POINT('',(-4.28612223837832E-016,-5.0,3.0));
#213=VECTOR('',#236,1.0);
#214=CARTESIAN_POINT('',(6.12303176911189E-016,5.0,-3.06151588455594E-016));
#215=AXIS2_PLACEMENT_3D('',#237,#238,#239);
#216=CARTESIAN_POINT('',(9.79685083057902E-016,5.0,6.0));
#217=CARTESIAN_POINT('',(7.95994129984545E-016,5.0,3.0));
#218=VECTOR('',#240,1.0);
#219=AXIS2_PLACEMENT_3D('',#241,#242,#243);
#220=COLOUR_RGB('',0.752941191196442,0.752941191196442,0.752941191196442);
#221=AXIS2_PLACEMENT_3D('',#244,#245,#246);
#222=AXIS2_PLACEMENT_3D('',#247,#248,#249);
#223=COLOUR_RGB('',0.752941191196442,0.752941191196442,0.752941191196442);
#224=AXIS2_PLACEMENT_3D('',#250,#251,#252);
#225=COLOUR_RGB('',0.752941191196442,0.752941191196442,0.752941191196442);
#226=AXIS2_PLACEMENT_3D('',#253,#254,#255);
#227=COLOUR_RGB('',0.752941191196442,0.752941191196442,0.752941191196442);
#228=DIRECTION('',(6.12303176911189E-017,6.12303176911189E-017,1.0));
#229=CARTESIAN_POINT('',(0.0,0.0,0.0));
#230=DIRECTION('',(6.12303176911189E-017,6.12303176911189E-017,1.0));
#231=DIRECTION('',(3.74915180455534E-033,-1.0,6.12303176911189E-017));
#232=DIRECTION('',(-6.12303176911189E-017,-6.12303176911189E-017,-1.0));
#233=CARTESIAN_POINT('',(3.67381906146713E-016,3.67381906146713E-016,6.0));
#234=DIRECTION('',(6.12303176911189E-017,6.12303176911189E-017,1.0));
#235=DIRECTION('',(3.74915180455534E-033,-1.0,6.12303176911189E-017));
#236=DIRECTION('',(6.12303176911189E-017,6.12303176911189E-017,1.0));
#237=CARTESIAN_POINT('',(0.0,0.0,0.0));
#238=DIRECTION('',(6.12303176911189E-017,6.12303176911189E-017,1.0));
#239=DIRECTION('',(3.74915180455534E-033,-1.0,6.12303176911189E-017));
#240=DIRECTION('',(-6.12303176911189E-017,-6.12303176911189E-017,-1.0));
#241=CARTESIAN_POINT('',(3.67381906146713E-016,3.67381906146713E-016,6.0));
#242=DIRECTION('',(6.12303176911189E-017,6.12303176911189E-017,1.0));
#243=DIRECTION('',(3.74915180455534E-033,-1.0,6.12303176911189E-017));
#244=CARTESIAN_POINT('',(3.67381906146713E-016,3.67381906146713E-016,6.0));
#245=DIRECTION('',(6.12303176911189E-017,6.12303176911189E-017,1.0));
#246=DIRECTION('',(3.74915180455534E-033,-1.0,6.12303176911189E-017));
#247=CARTESIAN_POINT('',(0.0,0.0,0.0));
#248=DIRECTION('',(6.12303176911189E-017,6.12303176911189E-017,1.0));
#249=DIRECTION('',(3.74915180455534E-033,-1.0,6.12303176911189E-017));
#250=CARTESIAN_POINT('',(3.67381906146713E-016,3.67381906146713E-016,6.0));
#251=DIRECTION('',(6.12303176911189E-017,6.12303176911189E-017,1.0));
#252=DIRECTION('',(3.74915180455534E-033,-1.0,6.12303176911189E-017));
#253=CARTESIAN_POINT('',(0.0,0.0,0.0));
#254=DIRECTION('',(6.12303176911189E-017,6.12303176911189E-017,1.0));
#255=DIRECTION('',(3.74915180455534E-033,-1.0,6.12303176911189E-017));
ENDSEC;
END-ISO-10303-21;
