ISO-10303-21;
HEADER;
FILE_DESCRIPTION(('STEP AP214'),'1');
FILE_NAME('HALDERN_EH_22080_1004.stp','2018-01-15T14:52:29',('TraceParts'),('TraceParts S.A.'),'Spatial InterOp 3D',' ',' ');
FILE_SCHEMA(('automotive_design'));
ENDSEC;
DATA;
#1=MECHANICAL_DESIGN_GEOMETRIC_PRESENTATION_REPRESENTATION(' ',(#10,#11,#12,#13,#14,#15,#16,#17,#18,#19,#20,#21,#22,#23,#24,#25),#6);
#2=PRODUCT_DEFINITION_CONTEXT('',#26,'design');
#3=APPLICATION_PROTOCOL_DEFINITION('INTERNATIONAL STANDARD','automotive_design',1994,#26);
#4=PRODUCT_CATEGORY_RELATIONSHIP('NONE','NONE',#27,#28);
#5=SHAPE_DEFINITION_REPRESENTATION(#29,#30);
#6= (GEOMETRIC_REPRESENTATION_CONTEXT(3)GLOBAL_UNCERTAINTY_ASSIGNED_CONTEXT((#33))GLOBAL_UNIT_ASSIGNED_CONTEXT((#35,#36,#37))REPRESENTATION_CONTEXT('NONE','WORKSPACE'));
#10=STYLED_ITEM('',(#39),#40);
#11=STYLED_ITEM('',(#41),#42);
#12=STYLED_ITEM('',(#43),#44);
#13=STYLED_ITEM('',(#45),#46);
#14=STYLED_ITEM('',(#47),#48);
#15=STYLED_ITEM('',(#49),#50);
#16=STYLED_ITEM('',(#51),#52);
#17=STYLED_ITEM('',(#53),#54);
#18=STYLED_ITEM('',(#55),#56);
#19=STYLED_ITEM('',(#57),#58);
#20=STYLED_ITEM('',(#59),#60);
#21=STYLED_ITEM('',(#61),#62);
#22=STYLED_ITEM('',(#63),#64);
#23=STYLED_ITEM('',(#65),#66);
#24=STYLED_ITEM('',(#67),#68);
#25=STYLED_ITEM('',(#69),#70);
#26=APPLICATION_CONTEXT(' ');
#27=PRODUCT_CATEGORY('part','NONE');
#28=PRODUCT_RELATED_PRODUCT_CATEGORY('detail',' ',(#71));
#29=PRODUCT_DEFINITION_SHAPE('NONE','NONE',#72);
#30=ADVANCED_BREP_SHAPE_REPRESENTATION('HALDERN_EH_22080_1004',(#73,#74),#6);
#33=UNCERTAINTY_MEASURE_WITH_UNIT(LENGTH_MEASURE(1.0E-006),#35,'','');
#35= (CONVERSION_BASED_UNIT('MILLIMETRE',#77)LENGTH_UNIT()NAMED_UNIT(#80));
#36= (NAMED_UNIT(#82)PLANE_ANGLE_UNIT()SI_UNIT($,.RADIAN.));
#37= (NAMED_UNIT(#82)SOLID_ANGLE_UNIT()SI_UNIT($,.STERADIAN.));
#39=PRESENTATION_STYLE_ASSIGNMENT((#88));
#40=ADVANCED_FACE('',(#89),#90,.T.);
#41=PRESENTATION_STYLE_ASSIGNMENT((#91));
#42=ADVANCED_FACE('',(#92),#93,.T.);
#43=PRESENTATION_STYLE_ASSIGNMENT((#94));
#44=ADVANCED_FACE('',(#95),#96,.T.);
#45=PRESENTATION_STYLE_ASSIGNMENT((#97));
#46=ADVANCED_FACE('',(#98),#99,.T.);
#47=PRESENTATION_STYLE_ASSIGNMENT((#100));
#48=ADVANCED_FACE('',(#101,#102),#103,.T.);
#49=PRESENTATION_STYLE_ASSIGNMENT((#104));
#50=ADVANCED_FACE('',(#105),#106,.T.);
#51=PRESENTATION_STYLE_ASSIGNMENT((#107));
#52=ADVANCED_FACE('',(#108,#109),#110,.T.);
#53=PRESENTATION_STYLE_ASSIGNMENT((#111));
#54=ADVANCED_FACE('',(#112),#113,.T.);
#55=PRESENTATION_STYLE_ASSIGNMENT((#114));
#56=ADVANCED_FACE('',(#115),#116,.T.);
#57=PRESENTATION_STYLE_ASSIGNMENT((#117));
#58=ADVANCED_FACE('',(#118),#119,.T.);
#59=PRESENTATION_STYLE_ASSIGNMENT((#120));
#60=ADVANCED_FACE('',(#121),#122,.T.);
#61=PRESENTATION_STYLE_ASSIGNMENT((#123));
#62=ADVANCED_FACE('',(#124),#125,.F.);
#63=PRESENTATION_STYLE_ASSIGNMENT((#126));
#64=ADVANCED_FACE('',(#127),#128,.T.);
#65=PRESENTATION_STYLE_ASSIGNMENT((#129));
#66=ADVANCED_FACE('',(#130),#131,.T.);
#67=PRESENTATION_STYLE_ASSIGNMENT((#132));
#68=ADVANCED_FACE('',(#133),#134,.F.);
#69=PRESENTATION_STYLE_ASSIGNMENT((#135));
#70=ADVANCED_FACE('',(#136),#137,.F.);
#71=PRODUCT('HALDERN_EH_22080_1004','HALDERN_EH_22080_1004','PART-HALDERN_EH_22080_1004-DESC',(#138));
#72=PRODUCT_DEFINITION('NONE','NONE',#139,#2);
#73=BREP_WITH_VOIDS('HALDERN_EH_22080_1004',#140,(#141));
#74=AXIS2_PLACEMENT_3D('',#142,#143,#144);
#77=LENGTH_MEASURE_WITH_UNIT(LENGTH_MEASURE(1.0),#145);
#80=DIMENSIONAL_EXPONENTS(1.0,0.0,0.0,0.0,0.0,0.0,0.0);
#82=DIMENSIONAL_EXPONENTS(0.0,0.0,0.0,0.0,0.0,0.0,0.0);
#88=SURFACE_STYLE_USAGE(.BOTH.,#146);
#89=FACE_OUTER_BOUND('',#147,.T.);
#90=SPHERICAL_SURFACE('',#148,1.5);
#91=SURFACE_STYLE_USAGE(.BOTH.,#149);
#92=FACE_OUTER_BOUND('',#150,.T.);
#93=TOROIDAL_SURFACE('',#151,0.999999999729288,1.00000000017071);
#94=SURFACE_STYLE_USAGE(.BOTH.,#152);
#95=FACE_OUTER_BOUND('',#153,.T.);
#96=CYLINDRICAL_SURFACE('',#154,1.99999999995);
#97=SURFACE_STYLE_USAGE(.BOTH.,#155);
#98=FACE_OUTER_BOUND('',#156,.T.);
#99=CYLINDRICAL_SURFACE('',#157,2.3);
#100=SURFACE_STYLE_USAGE(.BOTH.,#158);
#101=FACE_BOUND('',#159,.T.);
#102=FACE_OUTER_BOUND('',#160,.T.);
#103=PLANE('',#161);
#104=SURFACE_STYLE_USAGE(.BOTH.,#162);
#105=FACE_OUTER_BOUND('',#163,.T.);
#106=CYLINDRICAL_SURFACE('',#164,2.3);
#107=SURFACE_STYLE_USAGE(.BOTH.,#165);
#108=FACE_OUTER_BOUND('',#166,.T.);
#109=FACE_BOUND('',#167,.T.);
#110=PLANE('',#168);
#111=SURFACE_STYLE_USAGE(.BOTH.,#169);
#112=FACE_OUTER_BOUND('',#170,.T.);
#113=CYLINDRICAL_SURFACE('',#171,1.99999999995);
#114=SURFACE_STYLE_USAGE(.BOTH.,#172);
#115=FACE_OUTER_BOUND('',#173,.T.);
#116=TOROIDAL_SURFACE('',#174,0.999999999729288,1.00000000017071);
#117=SURFACE_STYLE_USAGE(.BOTH.,#175);
#118=FACE_OUTER_BOUND('',#176,.T.);
#119=PLANE('',#177);
#120=SURFACE_STYLE_USAGE(.BOTH.,#178);
#121=FACE_OUTER_BOUND('',#179,.T.);
#122=SPHERICAL_SURFACE('',#180,1.5);
#123=SURFACE_STYLE_USAGE(.BOTH.,#181);
#124=FACE_OUTER_BOUND('',#182,.T.);
#125=CYLINDRICAL_SURFACE('',#183,1.5);
#126=SURFACE_STYLE_USAGE(.BOTH.,#184);
#127=FACE_OUTER_BOUND('',#185,.T.);
#128=SPHERICAL_SURFACE('',#186,1.5);
#129=SURFACE_STYLE_USAGE(.BOTH.,#187);
#130=FACE_OUTER_BOUND('',#188,.T.);
#131=SPHERICAL_SURFACE('',#189,1.5);
#132=SURFACE_STYLE_USAGE(.BOTH.,#190);
#133=FACE_OUTER_BOUND('',#191,.T.);
#134=PLANE('',#192);
#135=SURFACE_STYLE_USAGE(.BOTH.,#193);
#136=FACE_OUTER_BOUND('',#194,.T.);
#137=CYLINDRICAL_SURFACE('',#195,1.5);
#138=PRODUCT_CONTEXT('',#26,'mechanical');
#139=PRODUCT_DEFINITION_FORMATION_WITH_SPECIFIED_SOURCE(' ','NONE',#71,.NOT_KNOWN.);
#140=CLOSED_SHELL('',(#40,#42,#44,#46,#48,#50,#52,#54,#56,#58,#60));
#141=ORIENTED_CLOSED_SHELL('',*,#196,.T.);
#142=CARTESIAN_POINT('',(0.0,0.0,0.0));
#143=DIRECTION('',(0.0,0.0,1.0));
#144=DIRECTION('',(1.0,0.0,0.0));
#145= (NAMED_UNIT(#80)LENGTH_UNIT()SI_UNIT(.MILLI.,.METRE.));
#146=SURFACE_SIDE_STYLE('',(#198));
#147=EDGE_LOOP('',(#199,#200,#201));
#148=AXIS2_PLACEMENT_3D('',#202,#203,#204);
#149=SURFACE_SIDE_STYLE('',(#205));
#150=EDGE_LOOP('',(#206,#207,#208,#209,#210,#211));
#151=AXIS2_PLACEMENT_3D('',#212,#213,#214);
#152=SURFACE_SIDE_STYLE('',(#215));
#153=EDGE_LOOP('',(#216,#217,#218,#219,#220));
#154=AXIS2_PLACEMENT_3D('',#221,#222,#223);
#155=SURFACE_SIDE_STYLE('',(#224));
#156=EDGE_LOOP('',(#225,#226,#227,#228));
#157=AXIS2_PLACEMENT_3D('',#229,#230,#231);
#158=SURFACE_SIDE_STYLE('',(#232));
#159=EDGE_LOOP('',(#233,#234,#235));
#160=EDGE_LOOP('',(#236,#237));
#161=AXIS2_PLACEMENT_3D('',#238,#239,#240);
#162=SURFACE_SIDE_STYLE('',(#241));
#163=EDGE_LOOP('',(#242,#243,#244,#245));
#164=AXIS2_PLACEMENT_3D('',#246,#247,#248);
#165=SURFACE_SIDE_STYLE('',(#249));
#166=EDGE_LOOP('',(#250,#251));
#167=EDGE_LOOP('',(#252,#253));
#168=AXIS2_PLACEMENT_3D('',#254,#255,#256);
#169=SURFACE_SIDE_STYLE('',(#257));
#170=EDGE_LOOP('',(#258,#259,#260,#261,#262));
#171=AXIS2_PLACEMENT_3D('',#263,#264,#265);
#172=SURFACE_SIDE_STYLE('',(#266));
#173=EDGE_LOOP('',(#267,#268,#269,#270,#271));
#174=AXIS2_PLACEMENT_3D('',#272,#273,#274);
#175=SURFACE_SIDE_STYLE('',(#275));
#176=EDGE_LOOP('',(#276,#277,#278));
#177=AXIS2_PLACEMENT_3D('',#279,#280,#281);
#178=SURFACE_SIDE_STYLE('',(#282));
#179=EDGE_LOOP('',(#283,#284));
#180=AXIS2_PLACEMENT_3D('',#285,#286,#287);
#181=SURFACE_SIDE_STYLE('',(#288));
#182=EDGE_LOOP('',(#289,#290,#291,#292));
#183=AXIS2_PLACEMENT_3D('',#293,#294,#295);
#184=SURFACE_SIDE_STYLE('',(#296));
#185=EDGE_LOOP('',(#297,#298));
#186=AXIS2_PLACEMENT_3D('',#299,#300,#301);
#187=SURFACE_SIDE_STYLE('',(#302));
#188=EDGE_LOOP('',(#303,#304));
#189=AXIS2_PLACEMENT_3D('',#305,#306,#307);
#190=SURFACE_SIDE_STYLE('',(#308));
#191=EDGE_LOOP('',(#309,#310));
#192=AXIS2_PLACEMENT_3D('',#311,#312,#313);
#193=SURFACE_SIDE_STYLE('',(#314));
#194=EDGE_LOOP('',(#315,#316,#317,#318));
#195=AXIS2_PLACEMENT_3D('',#319,#320,#321);
#196=CLOSED_SHELL('',(#62,#64,#66,#68,#70));
#198=SURFACE_STYLE_FILL_AREA(#322);
#199=ORIENTED_EDGE('',*,*,#323,.F.);
#200=ORIENTED_EDGE('',*,*,#324,.F.);
#201=ORIENTED_EDGE('',*,*,#325,.F.);
#202=CARTESIAN_POINT('',(-9.18454765366783E-017,0.0,1.5));
#203=DIRECTION('',(1.0,0.0,6.12303176911189E-017));
#204=DIRECTION('',(6.12303176911189E-017,0.0,-1.0));
#205=SURFACE_STYLE_FILL_AREA(#326);
#206=ORIENTED_EDGE('',*,*,#327,.F.);
#207=ORIENTED_EDGE('',*,*,#328,.T.);
#208=ORIENTED_EDGE('',*,*,#329,.T.);
#209=ORIENTED_EDGE('',*,*,#330,.F.);
#210=ORIENTED_EDGE('',*,*,#331,.F.);
#211=ORIENTED_EDGE('',*,*,#332,.F.);
#212=CARTESIAN_POINT('',(-3.06151588445142E-016,0.0,4.99999999982929));
#213=DIRECTION('',(6.12303176911189E-017,-6.84227766154059E-049,-1.0));
#214=DIRECTION('',(-6.12303176911189E-017,1.0,-3.74915180455534E-033));
#215=SURFACE_STYLE_FILL_AREA(#333);
#216=ORIENTED_EDGE('',*,*,#334,.F.);
#217=ORIENTED_EDGE('',*,*,#331,.T.);
#218=ORIENTED_EDGE('',*,*,#335,.T.);
#219=ORIENTED_EDGE('',*,*,#336,.F.);
#220=ORIENTED_EDGE('',*,*,#337,.F.);
#221=CARTESIAN_POINT('',(-2.1124459603436E-016,0.0,3.45));
#222=DIRECTION('',(6.12303176911189E-017,0.0,-1.0));
#223=DIRECTION('',(1.0,6.12303176911189E-017,6.12303176911189E-017));
#224=SURFACE_STYLE_FILL_AREA(#338);
#225=ORIENTED_EDGE('',*,*,#339,.F.);
#226=ORIENTED_EDGE('',*,*,#340,.T.);
#227=ORIENTED_EDGE('',*,*,#341,.F.);
#228=ORIENTED_EDGE('',*,*,#342,.F.);
#229=CARTESIAN_POINT('',(-8.87839606521223E-017,0.0,1.45));
#230=DIRECTION('',(6.12303176911189E-017,5.173744920859E-049,-1.0));
#231=DIRECTION('',(1.0,6.12303176911189E-017,6.12303176911189E-017));
#232=SURFACE_STYLE_FILL_AREA(#343);
#233=ORIENTED_EDGE('',*,*,#324,.T.);
#234=ORIENTED_EDGE('',*,*,#344,.T.);
#235=ORIENTED_EDGE('',*,*,#325,.T.);
#236=ORIENTED_EDGE('',*,*,#342,.T.);
#237=ORIENTED_EDGE('',*,*,#345,.T.);
#238=CARTESIAN_POINT('',(1.15,7.04148653447867E-017,1.0));
#239=DIRECTION('',(6.12303176911189E-017,0.0,-1.0));
#240=DIRECTION('',(1.0,6.12303176911189E-017,6.12303176911189E-017));
#241=SURFACE_STYLE_FILL_AREA(#346);
#242=ORIENTED_EDGE('',*,*,#339,.T.);
#243=ORIENTED_EDGE('',*,*,#345,.F.);
#244=ORIENTED_EDGE('',*,*,#341,.T.);
#245=ORIENTED_EDGE('',*,*,#347,.T.);
#246=CARTESIAN_POINT('',(-8.87839606521223E-017,0.0,1.45));
#247=DIRECTION('',(6.12303176911189E-017,5.173744920859E-049,-1.0));
#248=DIRECTION('',(1.0,6.12303176911189E-017,6.12303176911189E-017));
#249=SURFACE_STYLE_FILL_AREA(#348);
#250=ORIENTED_EDGE('',*,*,#340,.F.);
#251=ORIENTED_EDGE('',*,*,#347,.F.);
#252=ORIENTED_EDGE('',*,*,#337,.T.);
#253=ORIENTED_EDGE('',*,*,#349,.T.);
#254=CARTESIAN_POINT('',(2.15,1.31645183035906E-016,1.9));
#255=DIRECTION('',(-6.12303176911189E-017,0.0,1.0));
#256=DIRECTION('',(-1.0,-6.12303176911189E-017,-6.12303176911189E-017));
#257=SURFACE_STYLE_FILL_AREA(#350);
#258=ORIENTED_EDGE('',*,*,#334,.T.);
#259=ORIENTED_EDGE('',*,*,#349,.F.);
#260=ORIENTED_EDGE('',*,*,#336,.T.);
#261=ORIENTED_EDGE('',*,*,#351,.T.);
#262=ORIENTED_EDGE('',*,*,#332,.T.);
#263=CARTESIAN_POINT('',(-2.1124459603436E-016,0.0,3.45));
#264=DIRECTION('',(6.12303176911189E-017,0.0,-1.0));
#265=DIRECTION('',(1.0,6.12303176911189E-017,6.12303176911189E-017));
#266=SURFACE_STYLE_FILL_AREA(#352);
#267=ORIENTED_EDGE('',*,*,#327,.T.);
#268=ORIENTED_EDGE('',*,*,#351,.F.);
#269=ORIENTED_EDGE('',*,*,#335,.F.);
#270=ORIENTED_EDGE('',*,*,#330,.T.);
#271=ORIENTED_EDGE('',*,*,#353,.T.);
#272=CARTESIAN_POINT('',(-3.06151588445142E-016,0.0,4.99999999982929));
#273=DIRECTION('',(6.12303176911189E-017,-6.84227766154059E-049,-1.0));
#274=DIRECTION('',(-6.12303176911189E-017,1.0,-3.74915180455534E-033));
#275=SURFACE_STYLE_FILL_AREA(#354);
#276=ORIENTED_EDGE('',*,*,#329,.F.);
#277=ORIENTED_EDGE('',*,*,#328,.F.);
#278=ORIENTED_EDGE('',*,*,#353,.F.);
#279=CARTESIAN_POINT('',(0.5,3.06151588455594E-017,6.0));
#280=DIRECTION('',(-6.12303176911189E-017,0.0,1.0));
#281=DIRECTION('',(-1.0,-6.12303176911189E-017,-6.12303176911189E-017));
#282=SURFACE_STYLE_FILL_AREA(#355);
#283=ORIENTED_EDGE('',*,*,#323,.T.);
#284=ORIENTED_EDGE('',*,*,#344,.F.);
#285=CARTESIAN_POINT('',(-9.18454765366783E-017,0.0,1.5));
#286=DIRECTION('',(1.0,0.0,6.12303176911189E-017));
#287=DIRECTION('',(6.12303176911189E-017,0.0,-1.0));
#288=SURFACE_STYLE_FILL_AREA(#356);
#289=ORIENTED_EDGE('',*,*,#357,.F.);
#290=ORIENTED_EDGE('',*,*,#358,.T.);
#291=ORIENTED_EDGE('',*,*,#359,.F.);
#292=ORIENTED_EDGE('',*,*,#360,.F.);
#293=CARTESIAN_POINT('',(-2.02060048380692E-016,0.0,3.3));
#294=DIRECTION('',(6.12303176911189E-017,0.0,-1.0));
#295=DIRECTION('',(1.0,6.12303176911189E-017,6.12303176911189E-017));
#296=SURFACE_STYLE_FILL_AREA(#361);
#297=ORIENTED_EDGE('',*,*,#362,.F.);
#298=ORIENTED_EDGE('',*,*,#363,.F.);
#299=CARTESIAN_POINT('',(-9.18454765366783E-017,0.0,1.5));
#300=DIRECTION('',(1.0,0.0,6.12303176911189E-017));
#301=DIRECTION('',(6.12303176911189E-017,0.0,-1.0));
#302=SURFACE_STYLE_FILL_AREA(#364);
#303=ORIENTED_EDGE('',*,*,#362,.T.);
#304=ORIENTED_EDGE('',*,*,#358,.F.);
#305=CARTESIAN_POINT('',(-9.18454765366783E-017,0.0,1.5));
#306=DIRECTION('',(1.0,0.0,6.12303176911189E-017));
#307=DIRECTION('',(6.12303176911189E-017,0.0,-1.0));
#308=SURFACE_STYLE_FILL_AREA(#365);
#309=ORIENTED_EDGE('',*,*,#360,.T.);
#310=ORIENTED_EDGE('',*,*,#366,.T.);
#311=CARTESIAN_POINT('',(0.75,4.59227382683391E-017,5.1));
#312=DIRECTION('',(-6.12303176911189E-017,0.0,1.0));
#313=DIRECTION('',(-1.0,-6.12303176911189E-017,-6.12303176911189E-017));
#314=SURFACE_STYLE_FILL_AREA(#367);
#315=ORIENTED_EDGE('',*,*,#357,.T.);
#316=ORIENTED_EDGE('',*,*,#366,.F.);
#317=ORIENTED_EDGE('',*,*,#359,.T.);
#318=ORIENTED_EDGE('',*,*,#363,.T.);
#319=CARTESIAN_POINT('',(-2.02060048380692E-016,0.0,3.3));
#320=DIRECTION('',(6.12303176911189E-017,0.0,-1.0));
#321=DIRECTION('',(1.0,6.12303176911189E-017,6.12303176911189E-017));
#322=FILL_AREA_STYLE('',(#368));
#323=EDGE_CURVE('',#369,#370,#371,.T.);
#324=EDGE_CURVE('',#372,#369,#373,.T.);
#325=EDGE_CURVE('',#370,#372,#374,.T.);
#326=FILL_AREA_STYLE('',(#375));
#327=EDGE_CURVE('',#376,#377,#378,.T.);
#328=EDGE_CURVE('',#376,#379,#380,.T.);
#329=EDGE_CURVE('',#379,#381,#382,.T.);
#330=EDGE_CURVE('',#383,#381,#384,.T.);
#331=EDGE_CURVE('',#385,#383,#386,.T.);
#332=EDGE_CURVE('',#377,#385,#387,.T.);
#333=FILL_AREA_STYLE('',(#388));
#334=EDGE_CURVE('',#385,#389,#390,.T.);
#335=EDGE_CURVE('',#383,#391,#392,.T.);
#336=EDGE_CURVE('',#393,#391,#394,.T.);
#337=EDGE_CURVE('',#389,#393,#395,.T.);
#338=FILL_AREA_STYLE('',(#396));
#339=EDGE_CURVE('',#397,#398,#399,.T.);
#340=EDGE_CURVE('',#397,#400,#401,.T.);
#341=EDGE_CURVE('',#402,#400,#403,.T.);
#342=EDGE_CURVE('',#398,#402,#404,.T.);
#343=FILL_AREA_STYLE('',(#405));
#344=EDGE_CURVE('',#369,#370,#406,.T.);
#345=EDGE_CURVE('',#402,#398,#407,.T.);
#346=FILL_AREA_STYLE('',(#408));
#347=EDGE_CURVE('',#400,#397,#409,.T.);
#348=FILL_AREA_STYLE('',(#410));
#349=EDGE_CURVE('',#393,#389,#411,.T.);
#350=FILL_AREA_STYLE('',(#412));
#351=EDGE_CURVE('',#391,#377,#413,.T.);
#352=FILL_AREA_STYLE('',(#414));
#353=EDGE_CURVE('',#381,#376,#415,.T.);
#354=FILL_AREA_STYLE('',(#416));
#355=FILL_AREA_STYLE('',(#417));
#356=FILL_AREA_STYLE('',(#418));
#357=EDGE_CURVE('',#419,#420,#421,.T.);
#358=EDGE_CURVE('',#419,#422,#423,.T.);
#359=EDGE_CURVE('',#424,#422,#425,.T.);
#360=EDGE_CURVE('',#420,#424,#426,.T.);
#361=FILL_AREA_STYLE('',(#427));
#362=EDGE_CURVE('',#419,#422,#428,.T.);
#363=EDGE_CURVE('',#422,#419,#429,.T.);
#364=FILL_AREA_STYLE('',(#430));
#365=FILL_AREA_STYLE('',(#431));
#366=EDGE_CURVE('',#424,#420,#432,.T.);
#367=FILL_AREA_STYLE('',(#433));
#368=FILL_AREA_STYLE_COLOUR('',#434);
#369=VERTEX_POINT('',#435);
#370=VERTEX_POINT('',#436);
#371=CIRCLE('',#437,1.5);
#372=VERTEX_POINT('',#438);
#373=CIRCLE('',#439,1.4142135623731);
#374=CIRCLE('',#440,1.4142135623731);
#375=FILL_AREA_STYLE_COLOUR('',#441);
#376=VERTEX_POINT('',#442);
#377=VERTEX_POINT('',#443);
#378=CIRCLE('',#444,1.00000000017071);
#379=VERTEX_POINT('',#445);
#380=CIRCLE('',#446,1.0);
#381=VERTEX_POINT('',#447);
#382=CIRCLE('',#448,1.0);
#383=VERTEX_POINT('',#449);
#384=CIRCLE('',#450,1.00000000017071);
#385=VERTEX_POINT('',#451);
#386=CIRCLE('',#452,1.9999999999);
#387=CIRCLE('',#453,1.9999999999);
#388=FILL_AREA_STYLE_COLOUR('',#454);
#389=VERTEX_POINT('',#455);
#390=LINE('',#456,#457);
#391=VERTEX_POINT('',#458);
#392=CIRCLE('',#459,1.9999999999);
#393=VERTEX_POINT('',#460);
#394=LINE('',#461,#462);
#395=CIRCLE('',#463,2.0);
#396=FILL_AREA_STYLE_COLOUR('',#464);
#397=VERTEX_POINT('',#465);
#398=VERTEX_POINT('',#466);
#399=LINE('',#467,#468);
#400=VERTEX_POINT('',#469);
#401=CIRCLE('',#470,2.3);
#402=VERTEX_POINT('',#471);
#403=LINE('',#472,#473);
#404=CIRCLE('',#474,2.3);
#405=FILL_AREA_STYLE_COLOUR('',#475);
#406=CIRCLE('',#476,1.4142135623731);
#407=CIRCLE('',#477,2.3);
#408=FILL_AREA_STYLE_COLOUR('',#478);
#409=CIRCLE('',#479,2.3);
#410=FILL_AREA_STYLE_COLOUR('',#480);
#411=CIRCLE('',#481,2.0);
#412=FILL_AREA_STYLE_COLOUR('',#482);
#413=CIRCLE('',#483,1.9999999999);
#414=FILL_AREA_STYLE_COLOUR('',#484);
#415=CIRCLE('',#485,1.0);
#416=FILL_AREA_STYLE_COLOUR('',#486);
#417=FILL_AREA_STYLE_COLOUR('',#487);
#418=FILL_AREA_STYLE_COLOUR('',#488);
#419=VERTEX_POINT('',#489);
#420=VERTEX_POINT('',#490);
#421=LINE('',#491,#492);
#422=VERTEX_POINT('',#493);
#423=CIRCLE('',#494,1.5);
#424=VERTEX_POINT('',#495);
#425=LINE('',#496,#497);
#426=CIRCLE('',#498,1.5);
#427=FILL_AREA_STYLE_COLOUR('',#499);
#428=CIRCLE('',#500,1.5);
#429=CIRCLE('',#501,1.5);
#430=FILL_AREA_STYLE_COLOUR('',#502);
#431=FILL_AREA_STYLE_COLOUR('',#503);
#432=CIRCLE('',#504,1.5);
#433=FILL_AREA_STYLE_COLOUR('',#505);
#434=COLOUR_RGB('',0.509803950786591,0.509803950786591,0.588235318660736);
#435=CARTESIAN_POINT('',(-1.4142135623731,-6.12303176911189E-017,1.0));
#436=CARTESIAN_POINT('',(1.4142135623731,-6.12303176911189E-017,1.0));
#437=AXIS2_PLACEMENT_3D('',#506,#507,#508);
#438=CARTESIAN_POINT('',(-2.34415809105506E-016,1.4142135623731,1.0));
#439=AXIS2_PLACEMENT_3D('',#509,#510,#511);
#440=AXIS2_PLACEMENT_3D('',#512,#513,#514);
#441=COLOUR_RGB('',0.509803950786591,0.509803950786591,0.588235318660736);
#442=CARTESIAN_POINT('',(-5.5107285922007E-016,1.0,6.0));
#443=CARTESIAN_POINT('',(-6.73533494583938E-016,1.9999999999,5.0));
#444=AXIS2_PLACEMENT_3D('',#515,#516,#517);
#445=CARTESIAN_POINT('',(1.0,6.12303176911189E-017,6.0));
#446=AXIS2_PLACEMENT_3D('',#518,#519,#520);
#447=CARTESIAN_POINT('',(-1.83690953073357E-016,-1.0,6.0));
#448=AXIS2_PLACEMENT_3D('',#521,#522,#523);
#449=CARTESIAN_POINT('',(6.12303176727497E-017,-1.9999999999,5.0));
#450=AXIS2_PLACEMENT_3D('',#524,#525,#526);
#451=CARTESIAN_POINT('',(1.9999999999,1.22460635376115E-016,5.0));
#452=AXIS2_PLACEMENT_3D('',#527,#528,#529);
#453=AXIS2_PLACEMENT_3D('',#530,#531,#532);
#454=COLOUR_RGB('',0.509803950786591,0.509803950786591,0.588235318660736);
#455=CARTESIAN_POINT('',(2.0,1.22460635382238E-016,1.9));
#456=CARTESIAN_POINT('',(1.99999999995,3.67381906137529E-016,3.45));
#457=VECTOR('',#533,1.0);
#458=CARTESIAN_POINT('',(-1.9999999999,-3.67381906128344E-016,5.0));
#459=AXIS2_PLACEMENT_3D('',#534,#535,#536);
#460=CARTESIAN_POINT('',(-2.0,-3.67381906146713E-016,1.9));
#461=CARTESIAN_POINT('',(-1.99999999995,-3.67381906137529E-016,3.45));
#462=VECTOR('',#537,1.0);
#463=AXIS2_PLACEMENT_3D('',#538,#539,#540);
#464=COLOUR_RGB('',0.509803950786591,0.509803950786591,0.588235318660736);
#465=CARTESIAN_POINT('',(2.3,1.40829730689573E-016,1.9));
#466=CARTESIAN_POINT('',(2.3,1.40829730689573E-016,1.0));
#467=CARTESIAN_POINT('',(2.3,4.2248919206872E-016,1.45));
#468=VECTOR('',#541,1.0);
#469=CARTESIAN_POINT('',(-2.3,-4.2248919206872E-016,1.9));
#470=AXIS2_PLACEMENT_3D('',#542,#543,#544);
#471=CARTESIAN_POINT('',(-2.3,-4.2248919206872E-016,1.0));
#472=CARTESIAN_POINT('',(-2.3,-4.2248919206872E-016,1.45));
#473=VECTOR('',#545,1.0);
#474=AXIS2_PLACEMENT_3D('',#546,#547,#548);
#475=COLOUR_RGB('',0.509803950786591,0.509803950786591,0.588235318660736);
#476=AXIS2_PLACEMENT_3D('',#549,#550,#551);
#477=AXIS2_PLACEMENT_3D('',#552,#553,#554);
#478=COLOUR_RGB('',0.509803950786591,0.509803950786591,0.588235318660736);
#479=AXIS2_PLACEMENT_3D('',#555,#556,#557);
#480=COLOUR_RGB('',0.509803950786591,0.509803950786591,0.588235318660736);
#481=AXIS2_PLACEMENT_3D('',#558,#559,#560);
#482=COLOUR_RGB('',0.509803950786591,0.509803950786591,0.588235318660736);
#483=AXIS2_PLACEMENT_3D('',#561,#562,#563);
#484=COLOUR_RGB('',0.509803950786591,0.509803950786591,0.588235318660736);
#485=AXIS2_PLACEMENT_3D('',#564,#565,#566);
#486=COLOUR_RGB('',0.509803950786591,0.509803950786591,0.588235318660736);
#487=COLOUR_RGB('',0.509803950786591,0.509803950786591,0.588235318660736);
#488=COLOUR_RGB('',0.509803950786591,0.509803950786591,0.588235318660736);
#489=CARTESIAN_POINT('',(1.5,9.18454765366783E-017,1.5));
#490=CARTESIAN_POINT('',(1.5,9.18454765366783E-017,5.1));
#491=CARTESIAN_POINT('',(1.5,2.75536429610035E-016,3.3));
#492=VECTOR('',#567,1.0);
#493=CARTESIAN_POINT('',(-1.5,-3.44342634097733E-049,1.5));
#494=AXIS2_PLACEMENT_3D('',#568,#569,#570);
#495=CARTESIAN_POINT('',(-1.5,-2.75536429610035E-016,5.1));
#496=CARTESIAN_POINT('',(-1.5,-2.75536429610035E-016,3.3));
#497=VECTOR('',#571,1.0);
#498=AXIS2_PLACEMENT_3D('',#572,#573,#574);
#499=COLOUR_RGB('',0.509803950786591,0.509803950786591,0.588235318660736);
#500=AXIS2_PLACEMENT_3D('',#575,#576,#577);
#501=AXIS2_PLACEMENT_3D('',#578,#579,#580);
#502=COLOUR_RGB('',0.509803950786591,0.509803950786591,0.588235318660736);
#503=COLOUR_RGB('',0.509803950786591,0.509803950786591,0.588235318660736);
#504=AXIS2_PLACEMENT_3D('',#581,#582,#583);
#505=COLOUR_RGB('',0.509803950786591,0.509803950786591,0.588235318660736);
#506=CARTESIAN_POINT('',(-9.18454765366783E-017,0.0,1.5));
#507=DIRECTION('',(-7.49830360911069E-033,-1.0,1.22460635382238E-016));
#508=DIRECTION('',(0.0,1.22460635382238E-016,1.0));
#509=CARTESIAN_POINT('',(-6.12303176911189E-017,0.0,1.0));
#510=DIRECTION('',(-6.12303176911189E-017,0.0,1.0));
#511=DIRECTION('',(0.0,-1.0,0.0));
#512=CARTESIAN_POINT('',(-6.12303176911189E-017,0.0,1.0));
#513=DIRECTION('',(-6.12303176911189E-017,0.0,1.0));
#514=DIRECTION('',(0.0,-1.0,0.0));
#515=CARTESIAN_POINT('',(-4.89842541468771E-016,0.999999999729288,4.99999999982929));
#516=DIRECTION('',(-1.0,-1.83690953073357E-016,-6.12303176911189E-017));
#517=DIRECTION('',(-1.83690953073357E-016,1.0,-1.1247455413666E-032));
#518=CARTESIAN_POINT('',(-3.67381906146713E-016,0.0,6.0));
#519=DIRECTION('',(6.12303176911189E-017,0.0,-1.0));
#520=DIRECTION('',(1.0,6.12303176911189E-017,6.12303176911189E-017));
#521=CARTESIAN_POINT('',(-3.67381906146713E-016,0.0,6.0));
#522=DIRECTION('',(6.12303176911189E-017,0.0,-1.0));
#523=DIRECTION('',(1.0,6.12303176911189E-017,6.12303176911189E-017));
#524=CARTESIAN_POINT('',(-1.22460635421512E-016,-0.999999999729288,4.99999999982929));
#525=DIRECTION('',(-1.0,-1.83690953073357E-016,-6.12303176911189E-017));
#526=DIRECTION('',(1.83690953073357E-016,-1.0,1.1247455413666E-032));
#527=CARTESIAN_POINT('',(-3.06151588455594E-016,0.0,5.0));
#528=DIRECTION('',(6.12303176911189E-017,0.0,-1.0));
#529=DIRECTION('',(1.0,6.12303176911189E-017,6.12303176911189E-017));
#530=CARTESIAN_POINT('',(-3.06151588455594E-016,0.0,5.0));
#531=DIRECTION('',(6.12303176911189E-017,0.0,-1.0));
#532=DIRECTION('',(1.0,6.12303176911189E-017,6.12303176911189E-017));
#533=DIRECTION('',(6.12303176911189E-017,0.0,-1.0));
#534=CARTESIAN_POINT('',(-3.06151588455594E-016,0.0,5.0));
#535=DIRECTION('',(6.12303176911189E-017,0.0,-1.0));
#536=DIRECTION('',(1.0,6.12303176911189E-017,6.12303176911189E-017));
#537=DIRECTION('',(-6.12303176911189E-017,-0.0,1.0));
#538=CARTESIAN_POINT('',(-1.16337603613126E-016,0.0,1.9));
#539=DIRECTION('',(6.12303176911189E-017,0.0,-1.0));
#540=DIRECTION('',(1.0,6.12303176911189E-017,6.12303176911189E-017));
#541=DIRECTION('',(6.12303176911189E-017,0.0,-1.0));
#542=CARTESIAN_POINT('',(-1.16337603613126E-016,0.0,1.9));
#543=DIRECTION('',(6.12303176911189E-017,5.173744920859E-049,-1.0));
#544=DIRECTION('',(1.0,6.12303176911189E-017,6.12303176911189E-017));
#545=DIRECTION('',(-6.12303176911189E-017,-0.0,1.0));
#546=CARTESIAN_POINT('',(-6.12303176911189E-017,0.0,1.0));
#547=DIRECTION('',(6.12303176911189E-017,5.173744920859E-049,-1.0));
#548=DIRECTION('',(1.0,6.12303176911189E-017,6.12303176911189E-017));
#549=CARTESIAN_POINT('',(-6.12303176911189E-017,0.0,1.0));
#550=DIRECTION('',(-6.12303176911189E-017,0.0,1.0));
#551=DIRECTION('',(0.0,-1.0,0.0));
#552=CARTESIAN_POINT('',(-6.12303176911189E-017,0.0,1.0));
#553=DIRECTION('',(6.12303176911189E-017,5.173744920859E-049,-1.0));
#554=DIRECTION('',(1.0,6.12303176911189E-017,6.12303176911189E-017));
#555=CARTESIAN_POINT('',(-1.16337603613126E-016,0.0,1.9));
#556=DIRECTION('',(6.12303176911189E-017,5.173744920859E-049,-1.0));
#557=DIRECTION('',(1.0,6.12303176911189E-017,6.12303176911189E-017));
#558=CARTESIAN_POINT('',(-1.16337603613126E-016,0.0,1.9));
#559=DIRECTION('',(6.12303176911189E-017,0.0,-1.0));
#560=DIRECTION('',(1.0,6.12303176911189E-017,6.12303176911189E-017));
#561=CARTESIAN_POINT('',(-3.06151588455594E-016,0.0,5.0));
#562=DIRECTION('',(6.12303176911189E-017,0.0,-1.0));
#563=DIRECTION('',(1.0,6.12303176911189E-017,6.12303176911189E-017));
#564=CARTESIAN_POINT('',(-3.67381906146713E-016,0.0,6.0));
#565=DIRECTION('',(6.12303176911189E-017,0.0,-1.0));
#566=DIRECTION('',(1.0,6.12303176911189E-017,6.12303176911189E-017));
#567=DIRECTION('',(-6.12303176911189E-017,-0.0,1.0));
#568=CARTESIAN_POINT('',(-9.18454765366783E-017,0.0,1.5));
#569=DIRECTION('',(6.12303176911189E-017,0.0,-1.0));
#570=DIRECTION('',(1.0,6.12303176911189E-017,6.12303176911189E-017));
#571=DIRECTION('',(6.12303176911189E-017,-0.0,-1.0));
#572=CARTESIAN_POINT('',(-3.12274620224706E-016,0.0,5.1));
#573=DIRECTION('',(6.12303176911189E-017,0.0,-1.0));
#574=DIRECTION('',(1.0,6.12303176911189E-017,6.12303176911189E-017));
#575=CARTESIAN_POINT('',(-9.18454765366783E-017,0.0,1.5));
#576=DIRECTION('',(-7.49830360911069E-033,-1.0,1.22460635382238E-016));
#577=DIRECTION('',(0.0,1.22460635382238E-016,1.0));
#578=CARTESIAN_POINT('',(-9.18454765366783E-017,0.0,1.5));
#579=DIRECTION('',(6.12303176911189E-017,0.0,-1.0));
#580=DIRECTION('',(1.0,6.12303176911189E-017,6.12303176911189E-017));
#581=CARTESIAN_POINT('',(-3.12274620224706E-016,0.0,5.1));
#582=DIRECTION('',(6.12303176911189E-017,0.0,-1.0));
#583=DIRECTION('',(1.0,6.12303176911189E-017,6.12303176911189E-017));
ENDSEC;
END-ISO-10303-21;
