ISO-10303-21;
HEADER;
FILE_DESCRIPTION(('STEP AP214'),'1');
FILE_NAME('HALDERN_EH_22080_0403.stp','2018-01-15T14:52:57',('TraceParts'),('TraceParts S.A.'),'Spatial InterOp 3D',' ',' ');
FILE_SCHEMA(('automotive_design'));
ENDSEC;
DATA;
#1=MECHANICAL_DESIGN_GEOMETRIC_PRESENTATION_REPRESENTATION(' ',(#10,#11,#12,#13,#14,#15,#16,#17,#18,#19,#20,#21,#22,#23,#24,#25,#26),#6);
#2=PRODUCT_DEFINITION_CONTEXT('',#27,'design');
#3=APPLICATION_PROTOCOL_DEFINITION('INTERNATIONAL STANDARD','automotive_design',1994,#27);
#4=PRODUCT_CATEGORY_RELATIONSHIP('NONE','NONE',#28,#29);
#5=SHAPE_DEFINITION_REPRESENTATION(#30,#31);
#6= (GEOMETRIC_REPRESENTATION_CONTEXT(3)GLOBAL_UNCERTAINTY_ASSIGNED_CONTEXT((#34))GLOBAL_UNIT_ASSIGNED_CONTEXT((#36,#37,#38))REPRESENTATION_CONTEXT('NONE','WORKSPACE'));
#10=STYLED_ITEM('',(#40),#41);
#11=STYLED_ITEM('',(#42),#43);
#12=STYLED_ITEM('',(#44),#45);
#13=STYLED_ITEM('',(#46),#47);
#14=STYLED_ITEM('',(#48),#49);
#15=STYLED_ITEM('',(#50),#51);
#16=STYLED_ITEM('',(#52),#53);
#17=STYLED_ITEM('',(#54),#55);
#18=STYLED_ITEM('',(#56),#57);
#19=STYLED_ITEM('',(#58),#59);
#20=STYLED_ITEM('',(#60),#61);
#21=STYLED_ITEM('',(#62),#63);
#22=STYLED_ITEM('',(#64),#65);
#23=STYLED_ITEM('',(#66),#67);
#24=STYLED_ITEM('',(#68),#69);
#25=STYLED_ITEM('',(#70),#71);
#26=STYLED_ITEM('',(#72),#73);
#27=APPLICATION_CONTEXT(' ');
#28=PRODUCT_CATEGORY('part','NONE');
#29=PRODUCT_RELATED_PRODUCT_CATEGORY('detail',' ',(#74));
#30=PRODUCT_DEFINITION_SHAPE('NONE','NONE',#75);
#31=ADVANCED_BREP_SHAPE_REPRESENTATION('HALDERN_EH_22080_0403',(#76,#77),#6);
#34=UNCERTAINTY_MEASURE_WITH_UNIT(LENGTH_MEASURE(1.0E-006),#36,'','');
#36= (CONVERSION_BASED_UNIT('MILLIMETRE',#80)LENGTH_UNIT()NAMED_UNIT(#83));
#37= (NAMED_UNIT(#85)PLANE_ANGLE_UNIT()SI_UNIT($,.RADIAN.));
#38= (NAMED_UNIT(#85)SOLID_ANGLE_UNIT()SI_UNIT($,.STERADIAN.));
#40=PRESENTATION_STYLE_ASSIGNMENT((#91));
#41=ADVANCED_FACE('',(#92),#93,.T.);
#42=PRESENTATION_STYLE_ASSIGNMENT((#94));
#43=ADVANCED_FACE('',(#95),#96,.T.);
#44=PRESENTATION_STYLE_ASSIGNMENT((#97));
#45=ADVANCED_FACE('',(#98),#99,.T.);
#46=PRESENTATION_STYLE_ASSIGNMENT((#100));
#47=ADVANCED_FACE('',(#101),#102,.T.);
#48=PRESENTATION_STYLE_ASSIGNMENT((#103));
#49=ADVANCED_FACE('',(#104,#105),#106,.T.);
#50=PRESENTATION_STYLE_ASSIGNMENT((#107));
#51=ADVANCED_FACE('',(#108),#109,.T.);
#52=PRESENTATION_STYLE_ASSIGNMENT((#110));
#53=ADVANCED_FACE('',(#111,#112),#113,.T.);
#54=PRESENTATION_STYLE_ASSIGNMENT((#114));
#55=ADVANCED_FACE('',(#115),#116,.T.);
#56=PRESENTATION_STYLE_ASSIGNMENT((#117));
#57=ADVANCED_FACE('',(#118),#119,.T.);
#58=PRESENTATION_STYLE_ASSIGNMENT((#120));
#59=ADVANCED_FACE('',(#121),#122,.T.);
#60=PRESENTATION_STYLE_ASSIGNMENT((#123));
#61=ADVANCED_FACE('',(#124),#125,.T.);
#62=PRESENTATION_STYLE_ASSIGNMENT((#126));
#63=ADVANCED_FACE('',(#127),#128,.F.);
#64=PRESENTATION_STYLE_ASSIGNMENT((#129));
#65=ADVANCED_FACE('',(#130),#131,.T.);
#66=PRESENTATION_STYLE_ASSIGNMENT((#132));
#67=ADVANCED_FACE('',(#133),#134,.T.);
#68=PRESENTATION_STYLE_ASSIGNMENT((#135));
#69=ADVANCED_FACE('',(#136),#137,.F.);
#70=PRESENTATION_STYLE_ASSIGNMENT((#138));
#71=ADVANCED_FACE('',(#139),#140,.F.);
#72=PRESENTATION_STYLE_ASSIGNMENT((#141));
#73=ADVANCED_FACE('',(#142,#143),#144,.F.);
#74=PRODUCT('HALDERN_EH_22080_0403','HALDERN_EH_22080_0403','PART-HALDERN_EH_22080_0403-DESC',(#145));
#75=PRODUCT_DEFINITION('NONE','NONE',#146,#2);
#76=BREP_WITH_VOIDS('HALDERN_EH_22080_0403',#147,(#148));
#77=AXIS2_PLACEMENT_3D('',#149,#150,#151);
#80=LENGTH_MEASURE_WITH_UNIT(LENGTH_MEASURE(1.0),#152);
#83=DIMENSIONAL_EXPONENTS(1.0,0.0,0.0,0.0,0.0,0.0,0.0);
#85=DIMENSIONAL_EXPONENTS(0.0,0.0,0.0,0.0,0.0,0.0,0.0);
#91=SURFACE_STYLE_USAGE(.BOTH.,#153);
#92=FACE_OUTER_BOUND('',#154,.T.);
#93=SPHERICAL_SURFACE('',#155,1.0);
#94=SURFACE_STYLE_USAGE(.BOTH.,#156);
#95=FACE_OUTER_BOUND('',#157,.T.);
#96=CONICAL_SURFACE('',#158,1.425,0.463647609000806);
#97=SURFACE_STYLE_USAGE(.BOTH.,#159);
#98=FACE_OUTER_BOUND('',#160,.T.);
#99=CYLINDRICAL_SURFACE('',#161,1.5);
#100=SURFACE_STYLE_USAGE(.BOTH.,#162);
#101=FACE_OUTER_BOUND('',#163,.T.);
#102=CYLINDRICAL_SURFACE('',#164,1.8);
#103=SURFACE_STYLE_USAGE(.BOTH.,#165);
#104=FACE_BOUND('',#166,.T.);
#105=FACE_OUTER_BOUND('',#167,.T.);
#106=PLANE('',#168);
#107=SURFACE_STYLE_USAGE(.BOTH.,#169);
#108=FACE_OUTER_BOUND('',#170,.T.);
#109=CYLINDRICAL_SURFACE('',#171,1.8);
#110=SURFACE_STYLE_USAGE(.BOTH.,#172);
#111=FACE_OUTER_BOUND('',#173,.T.);
#112=FACE_BOUND('',#174,.T.);
#113=PLANE('',#175);
#114=SURFACE_STYLE_USAGE(.BOTH.,#176);
#115=FACE_OUTER_BOUND('',#177,.T.);
#116=CYLINDRICAL_SURFACE('',#178,1.5);
#117=SURFACE_STYLE_USAGE(.BOTH.,#179);
#118=FACE_OUTER_BOUND('',#180,.T.);
#119=CONICAL_SURFACE('',#181,1.425,0.463647609000806);
#120=SURFACE_STYLE_USAGE(.BOTH.,#182);
#121=FACE_OUTER_BOUND('',#183,.T.);
#122=PLANE('',#184);
#123=SURFACE_STYLE_USAGE(.BOTH.,#185);
#124=FACE_OUTER_BOUND('',#186,.T.);
#125=SPHERICAL_SURFACE('',#187,1.0);
#126=SURFACE_STYLE_USAGE(.BOTH.,#188);
#127=FACE_OUTER_BOUND('',#189,.T.);
#128=CYLINDRICAL_SURFACE('',#190,1.0);
#129=SURFACE_STYLE_USAGE(.BOTH.,#191);
#130=FACE_OUTER_BOUND('',#192,.T.);
#131=SPHERICAL_SURFACE('',#193,1.0);
#132=SURFACE_STYLE_USAGE(.BOTH.,#194);
#133=FACE_OUTER_BOUND('',#195,.T.);
#134=SPHERICAL_SURFACE('',#196,1.0);
#135=SURFACE_STYLE_USAGE(.BOTH.,#197);
#136=FACE_OUTER_BOUND('',#198,.T.);
#137=PLANE('',#199);
#138=SURFACE_STYLE_USAGE(.BOTH.,#200);
#139=FACE_OUTER_BOUND('',#201,.T.);
#140=CYLINDRICAL_SURFACE('',#202,1.0);
#141=SURFACE_STYLE_USAGE(.BOTH.,#203);
#142=FACE_BOUND('',#204,.T.);
#143=FACE_OUTER_BOUND('',#205,.T.);
#144=PLANE('',#206);
#145=PRODUCT_CONTEXT('',#27,'mechanical');
#146=PRODUCT_DEFINITION_FORMATION_WITH_SPECIFIED_SOURCE(' ','NONE',#74,.NOT_KNOWN.);
#147=CLOSED_SHELL('',(#41,#43,#45,#47,#49,#51,#53,#55,#57,#59,#61));
#148=ORIENTED_CLOSED_SHELL('',*,#207,.T.);
#149=CARTESIAN_POINT('',(0.0,0.0,0.0));
#150=DIRECTION('',(0.0,0.0,1.0));
#151=DIRECTION('',(1.0,0.0,0.0));
#152= (NAMED_UNIT(#83)LENGTH_UNIT()SI_UNIT(.MILLI.,.METRE.));
#153=SURFACE_SIDE_STYLE('',(#209));
#154=EDGE_LOOP('',(#210,#211,#212));
#155=AXIS2_PLACEMENT_3D('',#213,#214,#215);
#156=SURFACE_SIDE_STYLE('',(#216));
#157=EDGE_LOOP('',(#217,#218,#219,#220));
#158=AXIS2_PLACEMENT_3D('',#221,#222,#223);
#159=SURFACE_SIDE_STYLE('',(#224));
#160=EDGE_LOOP('',(#225,#226,#227,#228));
#161=AXIS2_PLACEMENT_3D('',#229,#230,#231);
#162=SURFACE_SIDE_STYLE('',(#232));
#163=EDGE_LOOP('',(#233,#234,#235,#236));
#164=AXIS2_PLACEMENT_3D('',#237,#238,#239);
#165=SURFACE_SIDE_STYLE('',(#240));
#166=EDGE_LOOP('',(#241,#242,#243));
#167=EDGE_LOOP('',(#244,#245));
#168=AXIS2_PLACEMENT_3D('',#246,#247,#248);
#169=SURFACE_SIDE_STYLE('',(#249));
#170=EDGE_LOOP('',(#250,#251,#252,#253));
#171=AXIS2_PLACEMENT_3D('',#254,#255,#256);
#172=SURFACE_SIDE_STYLE('',(#257));
#173=EDGE_LOOP('',(#258,#259));
#174=EDGE_LOOP('',(#260,#261));
#175=AXIS2_PLACEMENT_3D('',#262,#263,#264);
#176=SURFACE_SIDE_STYLE('',(#265));
#177=EDGE_LOOP('',(#266,#267,#268,#269));
#178=AXIS2_PLACEMENT_3D('',#270,#271,#272);
#179=SURFACE_SIDE_STYLE('',(#273));
#180=EDGE_LOOP('',(#274,#275,#276,#277));
#181=AXIS2_PLACEMENT_3D('',#278,#279,#280);
#182=SURFACE_SIDE_STYLE('',(#281));
#183=EDGE_LOOP('',(#282,#283));
#184=AXIS2_PLACEMENT_3D('',#284,#285,#286);
#185=SURFACE_SIDE_STYLE('',(#287));
#186=EDGE_LOOP('',(#288,#289));
#187=AXIS2_PLACEMENT_3D('',#290,#291,#292);
#188=SURFACE_SIDE_STYLE('',(#293));
#189=EDGE_LOOP('',(#294,#295,#296,#297));
#190=AXIS2_PLACEMENT_3D('',#298,#299,#300);
#191=SURFACE_SIDE_STYLE('',(#301));
#192=EDGE_LOOP('',(#302,#303,#304));
#193=AXIS2_PLACEMENT_3D('',#305,#306,#307);
#194=SURFACE_SIDE_STYLE('',(#308));
#195=EDGE_LOOP('',(#309,#310));
#196=AXIS2_PLACEMENT_3D('',#311,#312,#313);
#197=SURFACE_SIDE_STYLE('',(#314));
#198=EDGE_LOOP('',(#315,#316));
#199=AXIS2_PLACEMENT_3D('',#317,#318,#319);
#200=SURFACE_SIDE_STYLE('',(#320));
#201=EDGE_LOOP('',(#321,#322,#323,#324));
#202=AXIS2_PLACEMENT_3D('',#325,#326,#327);
#203=SURFACE_SIDE_STYLE('',(#328));
#204=EDGE_LOOP('',(#329,#330,#331));
#205=EDGE_LOOP('',(#332,#333));
#206=AXIS2_PLACEMENT_3D('',#334,#335,#336);
#207=CLOSED_SHELL('',(#63,#65,#67,#69,#71,#73));
#209=SURFACE_STYLE_FILL_AREA(#337);
#210=ORIENTED_EDGE('',*,*,#338,.F.);
#211=ORIENTED_EDGE('',*,*,#339,.F.);
#212=ORIENTED_EDGE('',*,*,#340,.F.);
#213=CARTESIAN_POINT('',(-6.12303176911189E-017,0.0,1.0));
#214=DIRECTION('',(1.0,0.0,6.12303176911189E-017));
#215=DIRECTION('',(6.12303176911189E-017,0.0,-1.0));
#216=SURFACE_STYLE_FILL_AREA(#341);
#217=ORIENTED_EDGE('',*,*,#342,.F.);
#218=ORIENTED_EDGE('',*,*,#343,.T.);
#219=ORIENTED_EDGE('',*,*,#344,.F.);
#220=ORIENTED_EDGE('',*,*,#345,.F.);
#221=CARTESIAN_POINT('',(-2.69413397840923E-016,0.0,4.4));
#222=DIRECTION('',(6.12303176911189E-017,-0.0,-1.0));
#223=DIRECTION('',(1.0,6.12303176911189E-017,6.12303176911189E-017));
#224=SURFACE_STYLE_FILL_AREA(#346);
#225=ORIENTED_EDGE('',*,*,#347,.F.);
#226=ORIENTED_EDGE('',*,*,#345,.T.);
#227=ORIENTED_EDGE('',*,*,#348,.F.);
#228=ORIENTED_EDGE('',*,*,#349,.F.);
#229=CARTESIAN_POINT('',(-1.65321857766021E-016,0.0,2.7));
#230=DIRECTION('',(6.12303176911189E-017,0.0,-1.0));
#231=DIRECTION('',(1.0,6.12303176911189E-017,6.12303176911189E-017));
#232=SURFACE_STYLE_FILL_AREA(#350);
#233=ORIENTED_EDGE('',*,*,#351,.F.);
#234=ORIENTED_EDGE('',*,*,#352,.T.);
#235=ORIENTED_EDGE('',*,*,#353,.F.);
#236=ORIENTED_EDGE('',*,*,#354,.F.);
#237=CARTESIAN_POINT('',(-5.2045770037451E-017,0.0,0.85));
#238=DIRECTION('',(6.12303176911189E-017,0.0,-1.0));
#239=DIRECTION('',(1.0,6.12303176911189E-017,6.12303176911189E-017));
#240=SURFACE_STYLE_FILL_AREA(#355);
#241=ORIENTED_EDGE('',*,*,#339,.T.);
#242=ORIENTED_EDGE('',*,*,#356,.T.);
#243=ORIENTED_EDGE('',*,*,#340,.T.);
#244=ORIENTED_EDGE('',*,*,#354,.T.);
#245=ORIENTED_EDGE('',*,*,#357,.T.);
#246=CARTESIAN_POINT('',(0.9,5.5107285922007E-017,0.55));
#247=DIRECTION('',(6.12303176911189E-017,0.0,-1.0));
#248=DIRECTION('',(1.0,6.12303176911189E-017,6.12303176911189E-017));
#249=SURFACE_STYLE_FILL_AREA(#358);
#250=ORIENTED_EDGE('',*,*,#351,.T.);
#251=ORIENTED_EDGE('',*,*,#357,.F.);
#252=ORIENTED_EDGE('',*,*,#353,.T.);
#253=ORIENTED_EDGE('',*,*,#359,.T.);
#254=CARTESIAN_POINT('',(-5.2045770037451E-017,0.0,0.85));
#255=DIRECTION('',(6.12303176911189E-017,0.0,-1.0));
#256=DIRECTION('',(1.0,6.12303176911189E-017,6.12303176911189E-017));
#257=SURFACE_STYLE_FILL_AREA(#360);
#258=ORIENTED_EDGE('',*,*,#352,.F.);
#259=ORIENTED_EDGE('',*,*,#359,.F.);
#260=ORIENTED_EDGE('',*,*,#349,.T.);
#261=ORIENTED_EDGE('',*,*,#361,.T.);
#262=CARTESIAN_POINT('',(1.65,1.01030024190346E-016,1.15));
#263=DIRECTION('',(-6.12303176911189E-017,0.0,1.0));
#264=DIRECTION('',(-1.0,-6.12303176911189E-017,-6.12303176911189E-017));
#265=SURFACE_STYLE_FILL_AREA(#362);
#266=ORIENTED_EDGE('',*,*,#347,.T.);
#267=ORIENTED_EDGE('',*,*,#361,.F.);
#268=ORIENTED_EDGE('',*,*,#348,.T.);
#269=ORIENTED_EDGE('',*,*,#363,.T.);
#270=CARTESIAN_POINT('',(-1.65321857766021E-016,0.0,2.7));
#271=DIRECTION('',(6.12303176911189E-017,0.0,-1.0));
#272=DIRECTION('',(1.0,6.12303176911189E-017,6.12303176911189E-017));
#273=SURFACE_STYLE_FILL_AREA(#364);
#274=ORIENTED_EDGE('',*,*,#342,.T.);
#275=ORIENTED_EDGE('',*,*,#363,.F.);
#276=ORIENTED_EDGE('',*,*,#344,.T.);
#277=ORIENTED_EDGE('',*,*,#365,.T.);
#278=CARTESIAN_POINT('',(-2.69413397840923E-016,0.0,4.4));
#279=DIRECTION('',(6.12303176911189E-017,-0.0,-1.0));
#280=DIRECTION('',(1.0,6.12303176911189E-017,6.12303176911189E-017));
#281=SURFACE_STYLE_FILL_AREA(#366);
#282=ORIENTED_EDGE('',*,*,#343,.F.);
#283=ORIENTED_EDGE('',*,*,#365,.F.);
#284=CARTESIAN_POINT('',(0.675,4.13304644415052E-017,4.55));
#285=DIRECTION('',(-6.12303176911189E-017,0.0,1.0));
#286=DIRECTION('',(-1.0,-6.12303176911189E-017,-6.12303176911189E-017));
#287=SURFACE_STYLE_FILL_AREA(#367);
#288=ORIENTED_EDGE('',*,*,#338,.T.);
#289=ORIENTED_EDGE('',*,*,#356,.F.);
#290=CARTESIAN_POINT('',(-6.12303176911189E-017,0.0,1.0));
#291=DIRECTION('',(1.0,0.0,6.12303176911189E-017));
#292=DIRECTION('',(6.12303176911189E-017,0.0,-1.0));
#293=SURFACE_STYLE_FILL_AREA(#368);
#294=ORIENTED_EDGE('',*,*,#369,.F.);
#295=ORIENTED_EDGE('',*,*,#370,.T.);
#296=ORIENTED_EDGE('',*,*,#371,.F.);
#297=ORIENTED_EDGE('',*,*,#372,.F.);
#298=CARTESIAN_POINT('',(-1.56137310112353E-016,0.0,2.55));
#299=DIRECTION('',(6.12303176911189E-017,0.0,-1.0));
#300=DIRECTION('',(1.0,6.12303176911189E-017,6.12303176911189E-017));
#301=SURFACE_STYLE_FILL_AREA(#373);
#302=ORIENTED_EDGE('',*,*,#374,.F.);
#303=ORIENTED_EDGE('',*,*,#375,.T.);
#304=ORIENTED_EDGE('',*,*,#376,.T.);
#305=CARTESIAN_POINT('',(-6.12303176911189E-017,0.0,1.0));
#306=DIRECTION('',(1.0,0.0,6.12303176911189E-017));
#307=DIRECTION('',(6.12303176911189E-017,0.0,-1.0));
#308=SURFACE_STYLE_FILL_AREA(#377);
#309=ORIENTED_EDGE('',*,*,#374,.T.);
#310=ORIENTED_EDGE('',*,*,#378,.T.);
#311=CARTESIAN_POINT('',(-6.12303176911189E-017,0.0,1.0));
#312=DIRECTION('',(1.0,0.0,6.12303176911189E-017));
#313=DIRECTION('',(6.12303176911189E-017,0.0,-1.0));
#314=SURFACE_STYLE_FILL_AREA(#379);
#315=ORIENTED_EDGE('',*,*,#372,.T.);
#316=ORIENTED_EDGE('',*,*,#380,.T.);
#317=CARTESIAN_POINT('',(0.5,3.06151588455594E-017,4.05));
#318=DIRECTION('',(-6.12303176911189E-017,0.0,1.0));
#319=DIRECTION('',(-1.0,-6.12303176911189E-017,-6.12303176911189E-017));
#320=SURFACE_STYLE_FILL_AREA(#381);
#321=ORIENTED_EDGE('',*,*,#369,.T.);
#322=ORIENTED_EDGE('',*,*,#380,.F.);
#323=ORIENTED_EDGE('',*,*,#371,.T.);
#324=ORIENTED_EDGE('',*,*,#382,.T.);
#325=CARTESIAN_POINT('',(-1.56137310112353E-016,0.0,2.55));
#326=DIRECTION('',(6.12303176911189E-017,0.0,-1.0));
#327=DIRECTION('',(1.0,6.12303176911189E-017,6.12303176911189E-017));
#328=SURFACE_STYLE_FILL_AREA(#383);
#329=ORIENTED_EDGE('',*,*,#376,.F.);
#330=ORIENTED_EDGE('',*,*,#375,.F.);
#331=ORIENTED_EDGE('',*,*,#378,.F.);
#332=ORIENTED_EDGE('',*,*,#370,.F.);
#333=ORIENTED_EDGE('',*,*,#382,.F.);
#334=CARTESIAN_POINT('',(0.5,3.06151588455594E-017,1.05));
#335=DIRECTION('',(6.12303176911189E-017,0.0,-1.0));
#336=DIRECTION('',(1.0,6.12303176911189E-017,6.12303176911189E-017));
#337=FILL_AREA_STYLE('',(#384));
#338=EDGE_CURVE('',#385,#386,#387,.T.);
#339=EDGE_CURVE('',#388,#385,#389,.T.);
#340=EDGE_CURVE('',#386,#388,#390,.T.);
#341=FILL_AREA_STYLE('',(#391));
#342=EDGE_CURVE('',#392,#393,#394,.T.);
#343=EDGE_CURVE('',#392,#395,#396,.T.);
#344=EDGE_CURVE('',#397,#395,#398,.T.);
#345=EDGE_CURVE('',#393,#397,#399,.T.);
#346=FILL_AREA_STYLE('',(#400));
#347=EDGE_CURVE('',#393,#401,#402,.T.);
#348=EDGE_CURVE('',#403,#397,#404,.T.);
#349=EDGE_CURVE('',#401,#403,#405,.T.);
#350=FILL_AREA_STYLE('',(#406));
#351=EDGE_CURVE('',#407,#408,#409,.T.);
#352=EDGE_CURVE('',#407,#410,#411,.T.);
#353=EDGE_CURVE('',#412,#410,#413,.T.);
#354=EDGE_CURVE('',#408,#412,#414,.T.);
#355=FILL_AREA_STYLE('',(#415));
#356=EDGE_CURVE('',#385,#386,#416,.T.);
#357=EDGE_CURVE('',#412,#408,#417,.T.);
#358=FILL_AREA_STYLE('',(#418));
#359=EDGE_CURVE('',#410,#407,#419,.T.);
#360=FILL_AREA_STYLE('',(#420));
#361=EDGE_CURVE('',#403,#401,#421,.T.);
#362=FILL_AREA_STYLE('',(#422));
#363=EDGE_CURVE('',#397,#393,#423,.T.);
#364=FILL_AREA_STYLE('',(#424));
#365=EDGE_CURVE('',#395,#392,#425,.T.);
#366=FILL_AREA_STYLE('',(#426));
#367=FILL_AREA_STYLE('',(#427));
#368=FILL_AREA_STYLE('',(#428));
#369=EDGE_CURVE('',#429,#430,#431,.T.);
#370=EDGE_CURVE('',#429,#432,#433,.T.);
#371=EDGE_CURVE('',#434,#432,#435,.T.);
#372=EDGE_CURVE('',#430,#434,#436,.T.);
#373=FILL_AREA_STYLE('',(#437));
#374=EDGE_CURVE('',#438,#439,#440,.T.);
#375=EDGE_CURVE('',#438,#441,#442,.T.);
#376=EDGE_CURVE('',#441,#439,#443,.T.);
#377=FILL_AREA_STYLE('',(#444));
#378=EDGE_CURVE('',#439,#438,#445,.T.);
#379=FILL_AREA_STYLE('',(#446));
#380=EDGE_CURVE('',#434,#430,#447,.T.);
#381=FILL_AREA_STYLE('',(#448));
#382=EDGE_CURVE('',#432,#429,#449,.T.);
#383=FILL_AREA_STYLE('',(#450));
#384=FILL_AREA_STYLE_COLOUR('',#451);
#385=VERTEX_POINT('',#452);
#386=VERTEX_POINT('',#453);
#387=CIRCLE('',#454,1.0);
#388=VERTEX_POINT('',#455);
#389=CIRCLE('',#456,0.893028554974588);
#390=CIRCLE('',#457,0.893028554974588);
#391=FILL_AREA_STYLE_COLOUR('',#458);
#392=VERTEX_POINT('',#459);
#393=VERTEX_POINT('',#460);
#394=LINE('',#461,#462);
#395=VERTEX_POINT('',#463);
#396=CIRCLE('',#464,1.35);
#397=VERTEX_POINT('',#465);
#398=LINE('',#466,#467);
#399=CIRCLE('',#468,1.5);
#400=FILL_AREA_STYLE_COLOUR('',#469);
#401=VERTEX_POINT('',#470);
#402=LINE('',#471,#472);
#403=VERTEX_POINT('',#473);
#404=LINE('',#474,#475);
#405=CIRCLE('',#476,1.5);
#406=FILL_AREA_STYLE_COLOUR('',#477);
#407=VERTEX_POINT('',#478);
#408=VERTEX_POINT('',#479);
#409=LINE('',#480,#481);
#410=VERTEX_POINT('',#482);
#411=CIRCLE('',#483,1.8);
#412=VERTEX_POINT('',#484);
#413=LINE('',#485,#486);
#414=CIRCLE('',#487,1.8);
#415=FILL_AREA_STYLE_COLOUR('',#488);
#416=CIRCLE('',#489,0.893028554974588);
#417=CIRCLE('',#490,1.8);
#418=FILL_AREA_STYLE_COLOUR('',#491);
#419=CIRCLE('',#492,1.8);
#420=FILL_AREA_STYLE_COLOUR('',#493);
#421=CIRCLE('',#494,1.5);
#422=FILL_AREA_STYLE_COLOUR('',#495);
#423=CIRCLE('',#496,1.5);
#424=FILL_AREA_STYLE_COLOUR('',#497);
#425=CIRCLE('',#498,1.35);
#426=FILL_AREA_STYLE_COLOUR('',#499);
#427=FILL_AREA_STYLE_COLOUR('',#500);
#428=FILL_AREA_STYLE_COLOUR('',#501);
#429=VERTEX_POINT('',#502);
#430=VERTEX_POINT('',#503);
#431=LINE('',#504,#505);
#432=VERTEX_POINT('',#506);
#433=CIRCLE('',#507,1.0);
#434=VERTEX_POINT('',#508);
#435=LINE('',#509,#510);
#436=CIRCLE('',#511,1.0);
#437=FILL_AREA_STYLE_COLOUR('',#512);
#438=VERTEX_POINT('',#513);
#439=VERTEX_POINT('',#514);
#440=CIRCLE('',#515,1.0);
#441=VERTEX_POINT('',#516);
#442=CIRCLE('',#517,0.998749217771909);
#443=CIRCLE('',#518,0.998749217771909);
#444=FILL_AREA_STYLE_COLOUR('',#519);
#445=CIRCLE('',#520,0.998749217771909);
#446=FILL_AREA_STYLE_COLOUR('',#521);
#447=CIRCLE('',#522,1.0);
#448=FILL_AREA_STYLE_COLOUR('',#523);
#449=CIRCLE('',#524,1.0);
#450=FILL_AREA_STYLE_COLOUR('',#525);
#451=COLOUR_RGB('',0.509803950786591,0.509803950786591,0.588235318660736);
#452=CARTESIAN_POINT('',(-0.893028554974588,-5.5107285922007E-017,0.55));
#453=CARTESIAN_POINT('',(0.893028554974588,-5.5107285922007E-017,0.55));
#454=AXIS2_PLACEMENT_3D('',#526,#527,#528);
#455=CARTESIAN_POINT('',(-1.43037518986785E-016,0.893028554974588,0.55));
#456=AXIS2_PLACEMENT_3D('',#529,#530,#531);
#457=AXIS2_PLACEMENT_3D('',#532,#533,#534);
#458=COLOUR_RGB('',0.509803950786591,0.509803950786591,0.588235318660736);
#459=CARTESIAN_POINT('',(1.35,8.26609288830105E-017,4.55));
#460=CARTESIAN_POINT('',(1.5,9.18454765366783E-017,4.25));
#461=CARTESIAN_POINT('',(1.425,2.61759608129533E-016,4.4));
#462=VECTOR('',#535,1.0);
#463=CARTESIAN_POINT('',(-1.35,-2.47982786649031E-016,4.55));
#464=AXIS2_PLACEMENT_3D('',#536,#537,#538);
#465=CARTESIAN_POINT('',(-1.5,-2.75536429610035E-016,4.25));
#466=CARTESIAN_POINT('',(-1.425,-2.61759608129533E-016,4.4));
#467=VECTOR('',#539,1.0);
#468=AXIS2_PLACEMENT_3D('',#540,#541,#542);
#469=COLOUR_RGB('',0.509803950786591,0.509803950786591,0.588235318660736);
#470=CARTESIAN_POINT('',(1.5,9.18454765366783E-017,1.15));
#471=CARTESIAN_POINT('',(1.5,2.75536429610035E-016,2.7));
#472=VECTOR('',#543,1.0);
#473=CARTESIAN_POINT('',(-1.5,-2.75536429610035E-016,1.15));
#474=CARTESIAN_POINT('',(-1.5,-2.75536429610035E-016,2.7));
#475=VECTOR('',#544,1.0);
#476=AXIS2_PLACEMENT_3D('',#545,#546,#547);
#477=COLOUR_RGB('',0.509803950786591,0.509803950786591,0.588235318660736);
#478=CARTESIAN_POINT('',(1.8,1.10214571844014E-016,1.15));
#479=CARTESIAN_POINT('',(1.8,1.10214571844014E-016,0.55));
#480=CARTESIAN_POINT('',(1.8,3.30643715532042E-016,0.85));
#481=VECTOR('',#548,1.0);
#482=CARTESIAN_POINT('',(-1.8,-3.30643715532042E-016,1.15));
#483=AXIS2_PLACEMENT_3D('',#549,#550,#551);
#484=CARTESIAN_POINT('',(-1.8,-3.30643715532042E-016,0.55));
#485=CARTESIAN_POINT('',(-1.8,-3.30643715532042E-016,0.85));
#486=VECTOR('',#552,1.0);
#487=AXIS2_PLACEMENT_3D('',#553,#554,#555);
#488=COLOUR_RGB('',0.509803950786591,0.509803950786591,0.588235318660736);
#489=AXIS2_PLACEMENT_3D('',#556,#557,#558);
#490=AXIS2_PLACEMENT_3D('',#559,#560,#561);
#491=COLOUR_RGB('',0.509803950786591,0.509803950786591,0.588235318660736);
#492=AXIS2_PLACEMENT_3D('',#562,#563,#564);
#493=COLOUR_RGB('',0.509803950786591,0.509803950786591,0.588235318660736);
#494=AXIS2_PLACEMENT_3D('',#565,#566,#567);
#495=COLOUR_RGB('',0.509803950786591,0.509803950786591,0.588235318660736);
#496=AXIS2_PLACEMENT_3D('',#568,#569,#570);
#497=COLOUR_RGB('',0.509803950786591,0.509803950786591,0.588235318660736);
#498=AXIS2_PLACEMENT_3D('',#571,#572,#573);
#499=COLOUR_RGB('',0.509803950786591,0.509803950786591,0.588235318660736);
#500=COLOUR_RGB('',0.509803950786591,0.509803950786591,0.588235318660736);
#501=COLOUR_RGB('',0.509803950786591,0.509803950786591,0.588235318660736);
#502=CARTESIAN_POINT('',(1.0,6.12303176911189E-017,1.05));
#503=CARTESIAN_POINT('',(1.0,6.12303176911189E-017,4.05));
#504=CARTESIAN_POINT('',(1.0,1.83690953073357E-016,2.55));
#505=VECTOR('',#574,1.0);
#506=CARTESIAN_POINT('',(-1.0,-1.83690953073357E-016,1.05));
#507=AXIS2_PLACEMENT_3D('',#575,#576,#577);
#508=CARTESIAN_POINT('',(-1.0,-1.83690953073357E-016,4.05));
#509=CARTESIAN_POINT('',(-1.0,-1.83690953073357E-016,2.55));
#510=VECTOR('',#578,1.0);
#511=AXIS2_PLACEMENT_3D('',#579,#580,#581);
#512=COLOUR_RGB('',0.509803950786591,0.509803950786591,0.588235318660736);
#513=CARTESIAN_POINT('',(0.998749217771909,6.12303176911186E-018,1.05));
#514=CARTESIAN_POINT('',(-0.998749217771909,6.12303176911186E-018,1.05));
#515=AXIS2_PLACEMENT_3D('',#582,#583,#584);
#516=CARTESIAN_POINT('',(-1.86599297371536E-016,0.998749217771909,1.05));
#517=AXIS2_PLACEMENT_3D('',#585,#586,#587);
#518=AXIS2_PLACEMENT_3D('',#588,#589,#590);
#519=COLOUR_RGB('',0.509803950786591,0.509803950786591,0.588235318660736);
#520=AXIS2_PLACEMENT_3D('',#591,#592,#593);
#521=COLOUR_RGB('',0.509803950786591,0.509803950786591,0.588235318660736);
#522=AXIS2_PLACEMENT_3D('',#594,#595,#596);
#523=COLOUR_RGB('',0.509803950786591,0.509803950786591,0.588235318660736);
#524=AXIS2_PLACEMENT_3D('',#597,#598,#599);
#525=COLOUR_RGB('',0.509803950786591,0.509803950786591,0.588235318660736);
#526=CARTESIAN_POINT('',(-6.12303176911189E-017,0.0,1.0));
#527=DIRECTION('',(-7.49830360911069E-033,-1.0,1.22460635382238E-016));
#528=DIRECTION('',(0.0,1.22460635382238E-016,1.0));
#529=CARTESIAN_POINT('',(-3.36766747301154E-017,0.0,0.55));
#530=DIRECTION('',(-6.12303176911189E-017,0.0,1.0));
#531=DIRECTION('',(0.0,-1.0,0.0));
#532=CARTESIAN_POINT('',(-3.36766747301154E-017,0.0,0.55));
#533=DIRECTION('',(-6.12303176911189E-017,0.0,1.0));
#534=DIRECTION('',(0.0,-1.0,0.0));
#535=DIRECTION('',(0.447213595499958,8.21490915847498E-017,-0.894427190999916));
#536=CARTESIAN_POINT('',(-2.78597945494591E-016,0.0,4.55));
#537=DIRECTION('',(6.12303176911189E-017,0.0,-1.0));
#538=DIRECTION('',(1.0,6.12303176911189E-017,6.12303176911189E-017));
#539=DIRECTION('',(0.447213595499958,8.21490915847498E-017,0.894427190999916));
#540=CARTESIAN_POINT('',(-2.60228850187255E-016,0.0,4.25));
#541=DIRECTION('',(6.12303176911189E-017,0.0,-1.0));
#542=DIRECTION('',(1.0,6.12303176911189E-017,6.12303176911189E-017));
#543=DIRECTION('',(6.12303176911189E-017,0.0,-1.0));
#544=DIRECTION('',(-6.12303176911189E-017,-0.0,1.0));
#545=CARTESIAN_POINT('',(-7.04148653447867E-017,0.0,1.15));
#546=DIRECTION('',(6.12303176911189E-017,0.0,-1.0));
#547=DIRECTION('',(1.0,6.12303176911189E-017,6.12303176911189E-017));
#548=DIRECTION('',(6.12303176911189E-017,0.0,-1.0));
#549=CARTESIAN_POINT('',(-7.04148653447867E-017,0.0,1.15));
#550=DIRECTION('',(6.12303176911189E-017,0.0,-1.0));
#551=DIRECTION('',(1.0,6.12303176911189E-017,6.12303176911189E-017));
#552=DIRECTION('',(-6.12303176911189E-017,-0.0,1.0));
#553=CARTESIAN_POINT('',(-3.36766747301154E-017,0.0,0.55));
#554=DIRECTION('',(6.12303176911189E-017,0.0,-1.0));
#555=DIRECTION('',(1.0,6.12303176911189E-017,6.12303176911189E-017));
#556=CARTESIAN_POINT('',(-3.36766747301154E-017,0.0,0.55));
#557=DIRECTION('',(-6.12303176911189E-017,0.0,1.0));
#558=DIRECTION('',(0.0,-1.0,0.0));
#559=CARTESIAN_POINT('',(-3.36766747301154E-017,0.0,0.55));
#560=DIRECTION('',(6.12303176911189E-017,0.0,-1.0));
#561=DIRECTION('',(1.0,6.12303176911189E-017,6.12303176911189E-017));
#562=CARTESIAN_POINT('',(-7.04148653447867E-017,0.0,1.15));
#563=DIRECTION('',(6.12303176911189E-017,0.0,-1.0));
#564=DIRECTION('',(1.0,6.12303176911189E-017,6.12303176911189E-017));
#565=CARTESIAN_POINT('',(-7.04148653447867E-017,0.0,1.15));
#566=DIRECTION('',(6.12303176911189E-017,0.0,-1.0));
#567=DIRECTION('',(1.0,6.12303176911189E-017,6.12303176911189E-017));
#568=CARTESIAN_POINT('',(-2.60228850187255E-016,0.0,4.25));
#569=DIRECTION('',(6.12303176911189E-017,0.0,-1.0));
#570=DIRECTION('',(1.0,6.12303176911189E-017,6.12303176911189E-017));
#571=CARTESIAN_POINT('',(-2.78597945494591E-016,0.0,4.55));
#572=DIRECTION('',(6.12303176911189E-017,0.0,-1.0));
#573=DIRECTION('',(1.0,6.12303176911189E-017,6.12303176911189E-017));
#574=DIRECTION('',(-6.12303176911189E-017,-0.0,1.0));
#575=CARTESIAN_POINT('',(-6.42918335756748E-017,0.0,1.05));
#576=DIRECTION('',(6.12303176911189E-017,0.0,-1.0));
#577=DIRECTION('',(1.0,6.12303176911189E-017,6.12303176911189E-017));
#578=DIRECTION('',(6.12303176911189E-017,-0.0,-1.0));
#579=CARTESIAN_POINT('',(-2.47982786649031E-016,0.0,4.05));
#580=DIRECTION('',(6.12303176911189E-017,0.0,-1.0));
#581=DIRECTION('',(1.0,6.12303176911189E-017,6.12303176911189E-017));
#582=CARTESIAN_POINT('',(-6.12303176911189E-017,0.0,1.0));
#583=DIRECTION('',(-7.49830360911069E-033,-1.0,1.22460635382238E-016));
#584=DIRECTION('',(0.0,1.22460635382238E-016,1.0));
#585=CARTESIAN_POINT('',(-6.42918335756748E-017,0.0,1.05));
#586=DIRECTION('',(-6.12303176911189E-017,0.0,1.0));
#587=DIRECTION('',(0.0,-1.0,0.0));
#588=CARTESIAN_POINT('',(-6.42918335756748E-017,0.0,1.05));
#589=DIRECTION('',(-6.12303176911189E-017,0.0,1.0));
#590=DIRECTION('',(0.0,-1.0,0.0));
#591=CARTESIAN_POINT('',(-6.42918335756748E-017,0.0,1.05));
#592=DIRECTION('',(-6.12303176911189E-017,0.0,1.0));
#593=DIRECTION('',(0.0,-1.0,0.0));
#594=CARTESIAN_POINT('',(-2.47982786649031E-016,0.0,4.05));
#595=DIRECTION('',(6.12303176911189E-017,0.0,-1.0));
#596=DIRECTION('',(1.0,6.12303176911189E-017,6.12303176911189E-017));
#597=CARTESIAN_POINT('',(-6.42918335756748E-017,0.0,1.05));
#598=DIRECTION('',(6.12303176911189E-017,0.0,-1.0));
#599=DIRECTION('',(1.0,6.12303176911189E-017,6.12303176911189E-017));
ENDSEC;
END-ISO-10303-21;
