ISO-10303-21;
HEADER;
FILE_DESCRIPTION(('STEP AP214'),'1');
FILE_NAME('HALDERN_EH_22080_0003.stp','2018-01-15T14:52:36',('TraceParts'),('TraceParts S.A.'),'Spatial InterOp 3D',' ',' ');
FILE_SCHEMA(('automotive_design'));
ENDSEC;
DATA;
#1=MECHANICAL_DESIGN_GEOMETRIC_PRESENTATION_REPRESENTATION(' ',(#10,#11,#12,#13,#14,#15,#16,#17,#18,#19,#20,#21,#22,#23,#24,#25,#26),#6);
#2=PRODUCT_DEFINITION_CONTEXT('',#27,'design');
#3=APPLICATION_PROTOCOL_DEFINITION('INTERNATIONAL STANDARD','automotive_design',1994,#27);
#4=PRODUCT_CATEGORY_RELATIONSHIP('NONE','NONE',#28,#29);
#5=SHAPE_DEFINITION_REPRESENTATION(#30,#31);
#6= (GEOMETRIC_REPRESENTATION_CONTEXT(3)GLOBAL_UNCERTAINTY_ASSIGNED_CONTEXT((#34))GLOBAL_UNIT_ASSIGNED_CONTEXT((#36,#37,#38))REPRESENTATION_CONTEXT('NONE','WORKSPACE'));
#10=STYLED_ITEM('',(#40),#41);
#11=STYLED_ITEM('',(#42),#43);
#12=STYLED_ITEM('',(#44),#45);
#13=STYLED_ITEM('',(#46),#47);
#14=STYLED_ITEM('',(#48),#49);
#15=STYLED_ITEM('',(#50),#51);
#16=STYLED_ITEM('',(#52),#53);
#17=STYLED_ITEM('',(#54),#55);
#18=STYLED_ITEM('',(#56),#57);
#19=STYLED_ITEM('',(#58),#59);
#20=STYLED_ITEM('',(#60),#61);
#21=STYLED_ITEM('',(#62),#63);
#22=STYLED_ITEM('',(#64),#65);
#23=STYLED_ITEM('',(#66),#67);
#24=STYLED_ITEM('',(#68),#69);
#25=STYLED_ITEM('',(#70),#71);
#26=STYLED_ITEM('',(#72),#73);
#27=APPLICATION_CONTEXT(' ');
#28=PRODUCT_CATEGORY('part','NONE');
#29=PRODUCT_RELATED_PRODUCT_CATEGORY('detail',' ',(#74));
#30=PRODUCT_DEFINITION_SHAPE('NONE','NONE',#75);
#31=ADVANCED_BREP_SHAPE_REPRESENTATION('HALDERN_EH_22080_0003',(#76,#77),#6);
#34=UNCERTAINTY_MEASURE_WITH_UNIT(LENGTH_MEASURE(1.0E-006),#36,'','');
#36= (CONVERSION_BASED_UNIT('MILLIMETRE',#80)LENGTH_UNIT()NAMED_UNIT(#83));
#37= (NAMED_UNIT(#85)PLANE_ANGLE_UNIT()SI_UNIT($,.RADIAN.));
#38= (NAMED_UNIT(#85)SOLID_ANGLE_UNIT()SI_UNIT($,.STERADIAN.));
#40=PRESENTATION_STYLE_ASSIGNMENT((#91));
#41=ADVANCED_FACE('',(#92),#93,.T.);
#42=PRESENTATION_STYLE_ASSIGNMENT((#94));
#43=ADVANCED_FACE('',(#95),#96,.T.);
#44=PRESENTATION_STYLE_ASSIGNMENT((#97));
#45=ADVANCED_FACE('',(#98),#99,.T.);
#46=PRESENTATION_STYLE_ASSIGNMENT((#100));
#47=ADVANCED_FACE('',(#101),#102,.T.);
#48=PRESENTATION_STYLE_ASSIGNMENT((#103));
#49=ADVANCED_FACE('',(#104,#105),#106,.T.);
#50=PRESENTATION_STYLE_ASSIGNMENT((#107));
#51=ADVANCED_FACE('',(#108),#109,.T.);
#52=PRESENTATION_STYLE_ASSIGNMENT((#110));
#53=ADVANCED_FACE('',(#111,#112),#113,.T.);
#54=PRESENTATION_STYLE_ASSIGNMENT((#114));
#55=ADVANCED_FACE('',(#115),#116,.T.);
#56=PRESENTATION_STYLE_ASSIGNMENT((#117));
#57=ADVANCED_FACE('',(#118),#119,.T.);
#58=PRESENTATION_STYLE_ASSIGNMENT((#120));
#59=ADVANCED_FACE('',(#121),#122,.T.);
#60=PRESENTATION_STYLE_ASSIGNMENT((#123));
#61=ADVANCED_FACE('',(#124),#125,.T.);
#62=PRESENTATION_STYLE_ASSIGNMENT((#126));
#63=ADVANCED_FACE('',(#127),#128,.F.);
#64=PRESENTATION_STYLE_ASSIGNMENT((#129));
#65=ADVANCED_FACE('',(#130),#131,.T.);
#66=PRESENTATION_STYLE_ASSIGNMENT((#132));
#67=ADVANCED_FACE('',(#133),#134,.T.);
#68=PRESENTATION_STYLE_ASSIGNMENT((#135));
#69=ADVANCED_FACE('',(#136),#137,.F.);
#70=PRESENTATION_STYLE_ASSIGNMENT((#138));
#71=ADVANCED_FACE('',(#139),#140,.F.);
#72=PRESENTATION_STYLE_ASSIGNMENT((#141));
#73=ADVANCED_FACE('',(#142,#143),#144,.F.);
#74=PRODUCT('HALDERN_EH_22080_0003','HALDERN_EH_22080_0003','PART-HALDERN_EH_22080_0003-DESC',(#145));
#75=PRODUCT_DEFINITION('NONE','NONE',#146,#2);
#76=BREP_WITH_VOIDS('HALDERN_EH_22080_0003',#147,(#148));
#77=AXIS2_PLACEMENT_3D('',#149,#150,#151);
#80=LENGTH_MEASURE_WITH_UNIT(LENGTH_MEASURE(1.0),#152);
#83=DIMENSIONAL_EXPONENTS(1.0,0.0,0.0,0.0,0.0,0.0,0.0);
#85=DIMENSIONAL_EXPONENTS(0.0,0.0,0.0,0.0,0.0,0.0,0.0);
#91=SURFACE_STYLE_USAGE(.BOTH.,#153);
#92=FACE_OUTER_BOUND('',#154,.T.);
#93=SPHERICAL_SURFACE('',#155,1.19);
#94=SURFACE_STYLE_USAGE(.BOTH.,#156);
#95=FACE_OUTER_BOUND('',#157,.T.);
#96=TOROIDAL_SURFACE('',#158,0.749999999729289,0.750000000170711);
#97=SURFACE_STYLE_USAGE(.BOTH.,#159);
#98=FACE_OUTER_BOUND('',#160,.T.);
#99=CYLINDRICAL_SURFACE('',#161,1.49999999995);
#100=SURFACE_STYLE_USAGE(.BOTH.,#162);
#101=FACE_OUTER_BOUND('',#163,.T.);
#102=CYLINDRICAL_SURFACE('',#164,1.75);
#103=SURFACE_STYLE_USAGE(.BOTH.,#165);
#104=FACE_BOUND('',#166,.T.);
#105=FACE_OUTER_BOUND('',#167,.T.);
#106=PLANE('',#168);
#107=SURFACE_STYLE_USAGE(.BOTH.,#169);
#108=FACE_OUTER_BOUND('',#170,.T.);
#109=CYLINDRICAL_SURFACE('',#171,1.75);
#110=SURFACE_STYLE_USAGE(.BOTH.,#172);
#111=FACE_OUTER_BOUND('',#173,.T.);
#112=FACE_BOUND('',#174,.T.);
#113=PLANE('',#175);
#114=SURFACE_STYLE_USAGE(.BOTH.,#176);
#115=FACE_OUTER_BOUND('',#177,.T.);
#116=CYLINDRICAL_SURFACE('',#178,1.49999999995);
#117=SURFACE_STYLE_USAGE(.BOTH.,#179);
#118=FACE_OUTER_BOUND('',#180,.T.);
#119=TOROIDAL_SURFACE('',#181,0.749999999729289,0.750000000170711);
#120=SURFACE_STYLE_USAGE(.BOTH.,#182);
#121=FACE_OUTER_BOUND('',#183,.T.);
#122=PLANE('',#184);
#123=SURFACE_STYLE_USAGE(.BOTH.,#185);
#124=FACE_OUTER_BOUND('',#186,.T.);
#125=SPHERICAL_SURFACE('',#187,1.19);
#126=SURFACE_STYLE_USAGE(.BOTH.,#188);
#127=FACE_OUTER_BOUND('',#189,.T.);
#128=CYLINDRICAL_SURFACE('',#190,1.19);
#129=SURFACE_STYLE_USAGE(.BOTH.,#191);
#130=FACE_OUTER_BOUND('',#192,.T.);
#131=SPHERICAL_SURFACE('',#193,1.19);
#132=SURFACE_STYLE_USAGE(.BOTH.,#194);
#133=FACE_OUTER_BOUND('',#195,.T.);
#134=SPHERICAL_SURFACE('',#196,1.19);
#135=SURFACE_STYLE_USAGE(.BOTH.,#197);
#136=FACE_OUTER_BOUND('',#198,.T.);
#137=PLANE('',#199);
#138=SURFACE_STYLE_USAGE(.BOTH.,#200);
#139=FACE_OUTER_BOUND('',#201,.T.);
#140=CYLINDRICAL_SURFACE('',#202,1.19);
#141=SURFACE_STYLE_USAGE(.BOTH.,#203);
#142=FACE_BOUND('',#204,.T.);
#143=FACE_OUTER_BOUND('',#205,.T.);
#144=PLANE('',#206);
#145=PRODUCT_CONTEXT('',#27,'mechanical');
#146=PRODUCT_DEFINITION_FORMATION_WITH_SPECIFIED_SOURCE(' ','NONE',#74,.NOT_KNOWN.);
#147=CLOSED_SHELL('',(#41,#43,#45,#47,#49,#51,#53,#55,#57,#59,#61));
#148=ORIENTED_CLOSED_SHELL('',*,#207,.T.);
#149=CARTESIAN_POINT('',(0.0,0.0,0.0));
#150=DIRECTION('',(0.0,0.0,1.0));
#151=DIRECTION('',(1.0,0.0,0.0));
#152= (NAMED_UNIT(#83)LENGTH_UNIT()SI_UNIT(.MILLI.,.METRE.));
#153=SURFACE_SIDE_STYLE('',(#209));
#154=EDGE_LOOP('',(#210,#211,#212));
#155=AXIS2_PLACEMENT_3D('',#213,#214,#215);
#156=SURFACE_SIDE_STYLE('',(#216));
#157=EDGE_LOOP('',(#217,#218,#219,#220,#221,#222));
#158=AXIS2_PLACEMENT_3D('',#223,#224,#225);
#159=SURFACE_SIDE_STYLE('',(#226));
#160=EDGE_LOOP('',(#227,#228,#229,#230,#231));
#161=AXIS2_PLACEMENT_3D('',#232,#233,#234);
#162=SURFACE_SIDE_STYLE('',(#235));
#163=EDGE_LOOP('',(#236,#237,#238,#239));
#164=AXIS2_PLACEMENT_3D('',#240,#241,#242);
#165=SURFACE_SIDE_STYLE('',(#243));
#166=EDGE_LOOP('',(#244,#245,#246));
#167=EDGE_LOOP('',(#247,#248));
#168=AXIS2_PLACEMENT_3D('',#249,#250,#251);
#169=SURFACE_SIDE_STYLE('',(#252));
#170=EDGE_LOOP('',(#253,#254,#255,#256));
#171=AXIS2_PLACEMENT_3D('',#257,#258,#259);
#172=SURFACE_SIDE_STYLE('',(#260));
#173=EDGE_LOOP('',(#261,#262));
#174=EDGE_LOOP('',(#263,#264));
#175=AXIS2_PLACEMENT_3D('',#265,#266,#267);
#176=SURFACE_SIDE_STYLE('',(#268));
#177=EDGE_LOOP('',(#269,#270,#271,#272,#273));
#178=AXIS2_PLACEMENT_3D('',#274,#275,#276);
#179=SURFACE_SIDE_STYLE('',(#277));
#180=EDGE_LOOP('',(#278,#279,#280,#281,#282));
#181=AXIS2_PLACEMENT_3D('',#283,#284,#285);
#182=SURFACE_SIDE_STYLE('',(#286));
#183=EDGE_LOOP('',(#287,#288,#289));
#184=AXIS2_PLACEMENT_3D('',#290,#291,#292);
#185=SURFACE_SIDE_STYLE('',(#293));
#186=EDGE_LOOP('',(#294,#295));
#187=AXIS2_PLACEMENT_3D('',#296,#297,#298);
#188=SURFACE_SIDE_STYLE('',(#299));
#189=EDGE_LOOP('',(#300,#301,#302,#303));
#190=AXIS2_PLACEMENT_3D('',#304,#305,#306);
#191=SURFACE_SIDE_STYLE('',(#307));
#192=EDGE_LOOP('',(#308,#309,#310));
#193=AXIS2_PLACEMENT_3D('',#311,#312,#313);
#194=SURFACE_SIDE_STYLE('',(#314));
#195=EDGE_LOOP('',(#315,#316));
#196=AXIS2_PLACEMENT_3D('',#317,#318,#319);
#197=SURFACE_SIDE_STYLE('',(#320));
#198=EDGE_LOOP('',(#321,#322));
#199=AXIS2_PLACEMENT_3D('',#323,#324,#325);
#200=SURFACE_SIDE_STYLE('',(#326));
#201=EDGE_LOOP('',(#327,#328,#329,#330));
#202=AXIS2_PLACEMENT_3D('',#331,#332,#333);
#203=SURFACE_SIDE_STYLE('',(#334));
#204=EDGE_LOOP('',(#335,#336,#337));
#205=EDGE_LOOP('',(#338,#339));
#206=AXIS2_PLACEMENT_3D('',#340,#341,#342);
#207=CLOSED_SHELL('',(#63,#65,#67,#69,#71,#73));
#209=SURFACE_STYLE_FILL_AREA(#343);
#210=ORIENTED_EDGE('',*,*,#344,.F.);
#211=ORIENTED_EDGE('',*,*,#345,.F.);
#212=ORIENTED_EDGE('',*,*,#346,.F.);
#213=CARTESIAN_POINT('',(-7.28640780524314E-017,0.0,1.19));
#214=DIRECTION('',(1.0,0.0,6.12303176911189E-017));
#215=DIRECTION('',(6.12303176911189E-017,0.0,-1.0));
#216=SURFACE_STYLE_FILL_AREA(#347);
#217=ORIENTED_EDGE('',*,*,#348,.F.);
#218=ORIENTED_EDGE('',*,*,#349,.T.);
#219=ORIENTED_EDGE('',*,*,#350,.T.);
#220=ORIENTED_EDGE('',*,*,#351,.F.);
#221=ORIENTED_EDGE('',*,*,#352,.F.);
#222=ORIENTED_EDGE('',*,*,#353,.F.);
#223=CARTESIAN_POINT('',(-2.41859754869467E-016,0.0,3.94999999982929));
#224=DIRECTION('',(6.12303176911189E-017,0.0,-1.0));
#225=DIRECTION('',(-6.12303176911189E-017,1.0,-3.74915180455534E-033));
#226=SURFACE_STYLE_FILL_AREA(#354);
#227=ORIENTED_EDGE('',*,*,#355,.F.);
#228=ORIENTED_EDGE('',*,*,#352,.T.);
#229=ORIENTED_EDGE('',*,*,#356,.T.);
#230=ORIENTED_EDGE('',*,*,#357,.F.);
#231=ORIENTED_EDGE('',*,*,#358,.F.);
#232=CARTESIAN_POINT('',(-1.60729583939187E-016,0.0,2.625));
#233=DIRECTION('',(6.12303176911189E-017,0.0,-1.0));
#234=DIRECTION('',(1.0,6.12303176911189E-017,6.12303176911189E-017));
#235=SURFACE_STYLE_FILL_AREA(#359);
#236=ORIENTED_EDGE('',*,*,#360,.F.);
#237=ORIENTED_EDGE('',*,*,#361,.T.);
#238=ORIENTED_EDGE('',*,*,#362,.F.);
#239=ORIENTED_EDGE('',*,*,#363,.F.);
#240=CARTESIAN_POINT('',(-6.12303176911189E-017,0.0,1.0));
#241=DIRECTION('',(6.12303176911189E-017,0.0,-1.0));
#242=DIRECTION('',(1.0,6.12303176911189E-017,6.12303176911189E-017));
#243=SURFACE_STYLE_FILL_AREA(#364);
#244=ORIENTED_EDGE('',*,*,#345,.T.);
#245=ORIENTED_EDGE('',*,*,#365,.T.);
#246=ORIENTED_EDGE('',*,*,#346,.T.);
#247=ORIENTED_EDGE('',*,*,#363,.T.);
#248=ORIENTED_EDGE('',*,*,#366,.T.);
#249=CARTESIAN_POINT('',(0.875,5.3576527979729E-017,0.7));
#250=DIRECTION('',(6.12303176911189E-017,0.0,-1.0));
#251=DIRECTION('',(1.0,6.12303176911189E-017,6.12303176911189E-017));
#252=SURFACE_STYLE_FILL_AREA(#367);
#253=ORIENTED_EDGE('',*,*,#360,.T.);
#254=ORIENTED_EDGE('',*,*,#366,.F.);
#255=ORIENTED_EDGE('',*,*,#362,.T.);
#256=ORIENTED_EDGE('',*,*,#368,.T.);
#257=CARTESIAN_POINT('',(-6.12303176911189E-017,0.0,1.0));
#258=DIRECTION('',(6.12303176911189E-017,0.0,-1.0));
#259=DIRECTION('',(1.0,6.12303176911189E-017,6.12303176911189E-017));
#260=SURFACE_STYLE_FILL_AREA(#369);
#261=ORIENTED_EDGE('',*,*,#361,.F.);
#262=ORIENTED_EDGE('',*,*,#368,.F.);
#263=ORIENTED_EDGE('',*,*,#358,.T.);
#264=ORIENTED_EDGE('',*,*,#370,.T.);
#265=CARTESIAN_POINT('',(1.625,9.94992662480682E-017,1.3));
#266=DIRECTION('',(-6.12303176911189E-017,0.0,1.0));
#267=DIRECTION('',(-1.0,-6.12303176911189E-017,-6.12303176911189E-017));
#268=SURFACE_STYLE_FILL_AREA(#371);
#269=ORIENTED_EDGE('',*,*,#355,.T.);
#270=ORIENTED_EDGE('',*,*,#370,.F.);
#271=ORIENTED_EDGE('',*,*,#357,.T.);
#272=ORIENTED_EDGE('',*,*,#372,.T.);
#273=ORIENTED_EDGE('',*,*,#353,.T.);
#274=CARTESIAN_POINT('',(-1.60729583939187E-016,0.0,2.625));
#275=DIRECTION('',(6.12303176911189E-017,0.0,-1.0));
#276=DIRECTION('',(1.0,6.12303176911189E-017,6.12303176911189E-017));
#277=SURFACE_STYLE_FILL_AREA(#373);
#278=ORIENTED_EDGE('',*,*,#348,.T.);
#279=ORIENTED_EDGE('',*,*,#372,.F.);
#280=ORIENTED_EDGE('',*,*,#356,.F.);
#281=ORIENTED_EDGE('',*,*,#351,.T.);
#282=ORIENTED_EDGE('',*,*,#374,.T.);
#283=CARTESIAN_POINT('',(-2.41859754869467E-016,0.0,3.94999999982929));
#284=DIRECTION('',(6.12303176911189E-017,0.0,-1.0));
#285=DIRECTION('',(-6.12303176911189E-017,1.0,-3.74915180455534E-033));
#286=SURFACE_STYLE_FILL_AREA(#375);
#287=ORIENTED_EDGE('',*,*,#350,.F.);
#288=ORIENTED_EDGE('',*,*,#349,.F.);
#289=ORIENTED_EDGE('',*,*,#374,.F.);
#290=CARTESIAN_POINT('',(0.375,2.29613691341696E-017,4.7));
#291=DIRECTION('',(-6.12303176911189E-017,0.0,1.0));
#292=DIRECTION('',(-1.0,-6.12303176911189E-017,-6.12303176911189E-017));
#293=SURFACE_STYLE_FILL_AREA(#376);
#294=ORIENTED_EDGE('',*,*,#344,.T.);
#295=ORIENTED_EDGE('',*,*,#365,.F.);
#296=CARTESIAN_POINT('',(-7.28640780524314E-017,0.0,1.19));
#297=DIRECTION('',(1.0,0.0,6.12303176911189E-017));
#298=DIRECTION('',(6.12303176911189E-017,0.0,-1.0));
#299=SURFACE_STYLE_FILL_AREA(#377);
#300=ORIENTED_EDGE('',*,*,#378,.F.);
#301=ORIENTED_EDGE('',*,*,#379,.T.);
#302=ORIENTED_EDGE('',*,*,#380,.F.);
#303=ORIENTED_EDGE('',*,*,#381,.F.);
#304=CARTESIAN_POINT('',(-1.65321857766021E-016,0.0,2.7));
#305=DIRECTION('',(6.12303176911189E-017,4.83177576289529E-049,-1.0));
#306=DIRECTION('',(1.0,6.12303176911189E-017,6.12303176911189E-017));
#307=SURFACE_STYLE_FILL_AREA(#382);
#308=ORIENTED_EDGE('',*,*,#383,.F.);
#309=ORIENTED_EDGE('',*,*,#384,.T.);
#310=ORIENTED_EDGE('',*,*,#385,.T.);
#311=CARTESIAN_POINT('',(-7.28640780524314E-017,0.0,1.19));
#312=DIRECTION('',(1.0,0.0,6.12303176911189E-017));
#313=DIRECTION('',(6.12303176911189E-017,0.0,-1.0));
#314=SURFACE_STYLE_FILL_AREA(#386);
#315=ORIENTED_EDGE('',*,*,#383,.T.);
#316=ORIENTED_EDGE('',*,*,#387,.T.);
#317=CARTESIAN_POINT('',(-7.28640780524314E-017,0.0,1.19));
#318=DIRECTION('',(1.0,0.0,6.12303176911189E-017));
#319=DIRECTION('',(6.12303176911189E-017,0.0,-1.0));
#320=SURFACE_STYLE_FILL_AREA(#388);
#321=ORIENTED_EDGE('',*,*,#381,.T.);
#322=ORIENTED_EDGE('',*,*,#389,.T.);
#323=CARTESIAN_POINT('',(0.595,3.64320390262157E-017,4.2));
#324=DIRECTION('',(-6.12303176911189E-017,0.0,1.0));
#325=DIRECTION('',(-1.0,-6.12303176911189E-017,-6.12303176911189E-017));
#326=SURFACE_STYLE_FILL_AREA(#390);
#327=ORIENTED_EDGE('',*,*,#378,.T.);
#328=ORIENTED_EDGE('',*,*,#389,.F.);
#329=ORIENTED_EDGE('',*,*,#380,.T.);
#330=ORIENTED_EDGE('',*,*,#391,.T.);
#331=CARTESIAN_POINT('',(-1.65321857766021E-016,0.0,2.7));
#332=DIRECTION('',(6.12303176911189E-017,4.83177576289529E-049,-1.0));
#333=DIRECTION('',(1.0,6.12303176911189E-017,6.12303176911189E-017));
#334=SURFACE_STYLE_FILL_AREA(#392);
#335=ORIENTED_EDGE('',*,*,#385,.F.);
#336=ORIENTED_EDGE('',*,*,#384,.F.);
#337=ORIENTED_EDGE('',*,*,#387,.F.);
#338=ORIENTED_EDGE('',*,*,#379,.F.);
#339=ORIENTED_EDGE('',*,*,#391,.F.);
#340=CARTESIAN_POINT('',(0.595,3.64320390262157E-017,1.2));
#341=DIRECTION('',(6.12303176911189E-017,0.0,-1.0));
#342=DIRECTION('',(1.0,6.12303176911189E-017,6.12303176911189E-017));
#343=FILL_AREA_STYLE('',(#393));
#344=EDGE_CURVE('',#394,#395,#396,.T.);
#345=EDGE_CURVE('',#397,#394,#398,.T.);
#346=EDGE_CURVE('',#395,#397,#399,.T.);
#347=FILL_AREA_STYLE('',(#400));
#348=EDGE_CURVE('',#401,#402,#403,.T.);
#349=EDGE_CURVE('',#401,#404,#405,.T.);
#350=EDGE_CURVE('',#404,#406,#407,.T.);
#351=EDGE_CURVE('',#408,#406,#409,.T.);
#352=EDGE_CURVE('',#410,#408,#411,.T.);
#353=EDGE_CURVE('',#402,#410,#412,.T.);
#354=FILL_AREA_STYLE('',(#413));
#355=EDGE_CURVE('',#410,#414,#415,.T.);
#356=EDGE_CURVE('',#408,#416,#417,.T.);
#357=EDGE_CURVE('',#418,#416,#419,.T.);
#358=EDGE_CURVE('',#414,#418,#420,.T.);
#359=FILL_AREA_STYLE('',(#421));
#360=EDGE_CURVE('',#422,#423,#424,.T.);
#361=EDGE_CURVE('',#422,#425,#426,.T.);
#362=EDGE_CURVE('',#427,#425,#428,.T.);
#363=EDGE_CURVE('',#423,#427,#429,.T.);
#364=FILL_AREA_STYLE('',(#430));
#365=EDGE_CURVE('',#394,#395,#431,.T.);
#366=EDGE_CURVE('',#427,#423,#432,.T.);
#367=FILL_AREA_STYLE('',(#433));
#368=EDGE_CURVE('',#425,#422,#434,.T.);
#369=FILL_AREA_STYLE('',(#435));
#370=EDGE_CURVE('',#418,#414,#436,.T.);
#371=FILL_AREA_STYLE('',(#437));
#372=EDGE_CURVE('',#416,#402,#438,.T.);
#373=FILL_AREA_STYLE('',(#439));
#374=EDGE_CURVE('',#406,#401,#440,.T.);
#375=FILL_AREA_STYLE('',(#441));
#376=FILL_AREA_STYLE('',(#442));
#377=FILL_AREA_STYLE('',(#443));
#378=EDGE_CURVE('',#444,#445,#446,.T.);
#379=EDGE_CURVE('',#444,#447,#448,.T.);
#380=EDGE_CURVE('',#449,#447,#450,.T.);
#381=EDGE_CURVE('',#445,#449,#451,.T.);
#382=FILL_AREA_STYLE('',(#452));
#383=EDGE_CURVE('',#453,#454,#455,.T.);
#384=EDGE_CURVE('',#453,#456,#457,.T.);
#385=EDGE_CURVE('',#456,#454,#458,.T.);
#386=FILL_AREA_STYLE('',(#459));
#387=EDGE_CURVE('',#454,#453,#460,.T.);
#388=FILL_AREA_STYLE('',(#461));
#389=EDGE_CURVE('',#449,#445,#462,.T.);
#390=FILL_AREA_STYLE('',(#463));
#391=EDGE_CURVE('',#447,#444,#464,.T.);
#392=FILL_AREA_STYLE('',(#465));
#393=FILL_AREA_STYLE_COLOUR('',#466);
#394=VERTEX_POINT('',#467);
#395=VERTEX_POINT('',#468);
#396=CIRCLE('',#469,1.19);
#397=VERTEX_POINT('',#470);
#398=CIRCLE('',#471,1.08443533693808);
#399=CIRCLE('',#472,1.08443533693808);
#400=FILL_AREA_STYLE_COLOUR('',#473);
#401=VERTEX_POINT('',#474);
#402=VERTEX_POINT('',#475);
#403=CIRCLE('',#476,0.750000000170711);
#404=VERTEX_POINT('',#477);
#405=CIRCLE('',#478,0.75);
#406=VERTEX_POINT('',#479);
#407=CIRCLE('',#480,0.75);
#408=VERTEX_POINT('',#481);
#409=CIRCLE('',#482,0.750000000170711);
#410=VERTEX_POINT('',#483);
#411=CIRCLE('',#484,1.4999999999);
#412=CIRCLE('',#485,1.4999999999);
#413=FILL_AREA_STYLE_COLOUR('',#486);
#414=VERTEX_POINT('',#487);
#415=LINE('',#488,#489);
#416=VERTEX_POINT('',#490);
#417=CIRCLE('',#491,1.4999999999);
#418=VERTEX_POINT('',#492);
#419=LINE('',#493,#494);
#420=CIRCLE('',#495,1.5);
#421=FILL_AREA_STYLE_COLOUR('',#496);
#422=VERTEX_POINT('',#497);
#423=VERTEX_POINT('',#498);
#424=LINE('',#499,#500);
#425=VERTEX_POINT('',#501);
#426=CIRCLE('',#502,1.75);
#427=VERTEX_POINT('',#503);
#428=LINE('',#504,#505);
#429=CIRCLE('',#506,1.75);
#430=FILL_AREA_STYLE_COLOUR('',#507);
#431=CIRCLE('',#508,1.08443533693808);
#432=CIRCLE('',#509,1.75);
#433=FILL_AREA_STYLE_COLOUR('',#510);
#434=CIRCLE('',#511,1.75);
#435=FILL_AREA_STYLE_COLOUR('',#512);
#436=CIRCLE('',#513,1.5);
#437=FILL_AREA_STYLE_COLOUR('',#514);
#438=CIRCLE('',#515,1.4999999999);
#439=FILL_AREA_STYLE_COLOUR('',#516);
#440=CIRCLE('',#517,0.75);
#441=FILL_AREA_STYLE_COLOUR('',#518);
#442=FILL_AREA_STYLE_COLOUR('',#519);
#443=FILL_AREA_STYLE_COLOUR('',#520);
#444=VERTEX_POINT('',#521);
#445=VERTEX_POINT('',#522);
#446=LINE('',#523,#524);
#447=VERTEX_POINT('',#525);
#448=CIRCLE('',#526,1.19);
#449=VERTEX_POINT('',#527);
#450=LINE('',#528,#529);
#451=CIRCLE('',#530,1.19);
#452=FILL_AREA_STYLE_COLOUR('',#531);
#453=VERTEX_POINT('',#532);
#454=VERTEX_POINT('',#533);
#455=CIRCLE('',#534,1.19);
#456=VERTEX_POINT('',#535);
#457=CIRCLE('',#536,1.18995798245148);
#458=CIRCLE('',#537,1.18995798245148);
#459=FILL_AREA_STYLE_COLOUR('',#538);
#460=CIRCLE('',#539,1.18995798245148);
#461=FILL_AREA_STYLE_COLOUR('',#540);
#462=CIRCLE('',#541,1.19);
#463=FILL_AREA_STYLE_COLOUR('',#542);
#464=CIRCLE('',#543,1.19);
#465=FILL_AREA_STYLE_COLOUR('',#544);
#466=COLOUR_RGB('',0.509803950786591,0.509803950786591,0.588235318660736);
#467=CARTESIAN_POINT('',(-1.08443533693808,-6.00057113372965E-017,0.7));
#468=CARTESIAN_POINT('',(1.08443533693808,-6.00057113372965E-017,0.7));
#469=AXIS2_PLACEMENT_3D('',#545,#546,#547);
#470=CARTESIAN_POINT('',(-1.75661862776171E-016,1.08443533693808,0.7));
#471=AXIS2_PLACEMENT_3D('',#548,#549,#550);
#472=AXIS2_PLACEMENT_3D('',#551,#552,#553);
#473=COLOUR_RGB('',0.509803950786591,0.509803950786591,0.588235318660736);
#474=CARTESIAN_POINT('',(-4.25550707953276E-016,0.75,4.7));
#475=CARTESIAN_POINT('',(-5.17396184471585E-016,1.4999999999,3.95));
#476=AXIS2_PLACEMENT_3D('',#554,#555,#556);
#477=CARTESIAN_POINT('',(0.75,4.59227382683391E-017,4.7));
#478=AXIS2_PLACEMENT_3D('',#557,#558,#559);
#479=CARTESIAN_POINT('',(-1.50014278343241E-016,-0.75,4.7));
#480=AXIS2_PLACEMENT_3D('',#560,#561,#562);
#481=CARTESIAN_POINT('',(3.36766747117462E-017,-1.4999999999,3.95));
#482=AXIS2_PLACEMENT_3D('',#563,#564,#565);
#483=CARTESIAN_POINT('',(1.4999999999,9.18454765305553E-017,3.95));
#484=AXIS2_PLACEMENT_3D('',#566,#567,#568);
#485=AXIS2_PLACEMENT_3D('',#569,#570,#571);
#486=COLOUR_RGB('',0.509803950786591,0.509803950786591,0.588235318660736);
#487=CARTESIAN_POINT('',(1.5,9.18454765366783E-017,1.3));
#488=CARTESIAN_POINT('',(1.49999999995,2.7553642960085E-016,2.625));
#489=VECTOR('',#572,1.0);
#490=CARTESIAN_POINT('',(-1.4999999999,-2.75536429591666E-016,3.95));
#491=AXIS2_PLACEMENT_3D('',#573,#574,#575);
#492=CARTESIAN_POINT('',(-1.5,-2.75536429610035E-016,1.3));
#493=CARTESIAN_POINT('',(-1.49999999995,-2.7553642960085E-016,2.625));
#494=VECTOR('',#576,1.0);
#495=AXIS2_PLACEMENT_3D('',#577,#578,#579);
#496=COLOUR_RGB('',0.509803950786591,0.509803950786591,0.588235318660736);
#497=CARTESIAN_POINT('',(1.75,1.07153055959458E-016,1.3));
#498=CARTESIAN_POINT('',(1.75,1.07153055959458E-016,0.7));
#499=CARTESIAN_POINT('',(1.75,3.21459167878374E-016,1.0));
#500=VECTOR('',#580,1.0);
#501=CARTESIAN_POINT('',(-1.75,-3.21459167878374E-016,1.3));
#502=AXIS2_PLACEMENT_3D('',#581,#582,#583);
#503=CARTESIAN_POINT('',(-1.75,-3.21459167878374E-016,0.7));
#504=CARTESIAN_POINT('',(-1.75,-3.21459167878374E-016,1.0));
#505=VECTOR('',#584,1.0);
#506=AXIS2_PLACEMENT_3D('',#585,#586,#587);
#507=COLOUR_RGB('',0.509803950786591,0.509803950786591,0.588235318660736);
#508=AXIS2_PLACEMENT_3D('',#588,#589,#590);
#509=AXIS2_PLACEMENT_3D('',#591,#592,#593);
#510=COLOUR_RGB('',0.509803950786591,0.509803950786591,0.588235318660736);
#511=AXIS2_PLACEMENT_3D('',#594,#595,#596);
#512=COLOUR_RGB('',0.509803950786591,0.509803950786591,0.588235318660736);
#513=AXIS2_PLACEMENT_3D('',#597,#598,#599);
#514=COLOUR_RGB('',0.509803950786591,0.509803950786591,0.588235318660736);
#515=AXIS2_PLACEMENT_3D('',#600,#601,#602);
#516=COLOUR_RGB('',0.509803950786591,0.509803950786591,0.588235318660736);
#517=AXIS2_PLACEMENT_3D('',#603,#604,#605);
#518=COLOUR_RGB('',0.509803950786591,0.509803950786591,0.588235318660736);
#519=COLOUR_RGB('',0.509803950786591,0.509803950786591,0.588235318660736);
#520=COLOUR_RGB('',0.509803950786591,0.509803950786591,0.588235318660736);
#521=CARTESIAN_POINT('',(1.19,7.28640780524314E-017,1.2));
#522=CARTESIAN_POINT('',(1.19,7.28640780524314E-017,4.2));
#523=CARTESIAN_POINT('',(1.19,2.18592234157294E-016,2.7));
#524=VECTOR('',#606,1.0);
#525=CARTESIAN_POINT('',(-1.19,-2.18592234157294E-016,1.2));
#526=AXIS2_PLACEMENT_3D('',#607,#608,#609);
#527=CARTESIAN_POINT('',(-1.19,-2.18592234157294E-016,4.2));
#528=CARTESIAN_POINT('',(-1.19,-2.18592234157294E-016,2.7));
#529=VECTOR('',#610,1.0);
#530=AXIS2_PLACEMENT_3D('',#611,#612,#613);
#531=COLOUR_RGB('',0.509803950786591,0.509803950786591,0.588235318660736);
#532=CARTESIAN_POINT('',(1.18995798245148,1.22460635382235E-018,1.2));
#533=CARTESIAN_POINT('',(-1.18995798245148,1.22460635382235E-018,1.2));
#534=AXIS2_PLACEMENT_3D('',#614,#615,#616);
#535=CARTESIAN_POINT('',(-2.19199391838517E-016,1.18995798245148,1.2));
#536=AXIS2_PLACEMENT_3D('',#617,#618,#619);
#537=AXIS2_PLACEMENT_3D('',#620,#621,#622);
#538=COLOUR_RGB('',0.509803950786591,0.509803950786591,0.588235318660736);
#539=AXIS2_PLACEMENT_3D('',#623,#624,#625);
#540=COLOUR_RGB('',0.509803950786591,0.509803950786591,0.588235318660736);
#541=AXIS2_PLACEMENT_3D('',#626,#627,#628);
#542=COLOUR_RGB('',0.509803950786591,0.509803950786591,0.588235318660736);
#543=AXIS2_PLACEMENT_3D('',#629,#630,#631);
#544=COLOUR_RGB('',0.509803950786591,0.509803950786591,0.588235318660736);
#545=CARTESIAN_POINT('',(-7.28640780524314E-017,0.0,1.19));
#546=DIRECTION('',(-7.49830360911069E-033,-1.0,1.22460635382238E-016));
#547=DIRECTION('',(0.0,1.22460635382238E-016,1.0));
#548=CARTESIAN_POINT('',(-4.28612223837832E-017,0.0,0.7));
#549=DIRECTION('',(-6.12303176911189E-017,0.0,1.0));
#550=DIRECTION('',(0.0,-1.0,0.0));
#551=CARTESIAN_POINT('',(-4.28612223837832E-017,0.0,0.7));
#552=DIRECTION('',(-6.12303176911189E-017,0.0,1.0));
#553=DIRECTION('',(0.0,-1.0,0.0));
#554=CARTESIAN_POINT('',(-3.79627969624757E-016,0.749999999729289,3.94999999982929));
#555=DIRECTION('',(-1.0,-1.83690953073357E-016,-6.12303176911189E-017));
#556=DIRECTION('',(-1.83690953073357E-016,1.0,-1.1247455413666E-032));
#557=CARTESIAN_POINT('',(-2.87782493148259E-016,0.0,4.7));
#558=DIRECTION('',(6.12303176911189E-017,0.0,-1.0));
#559=DIRECTION('',(1.0,6.12303176911189E-017,6.12303176911189E-017));
#560=CARTESIAN_POINT('',(-2.87782493148259E-016,0.0,4.7));
#561=DIRECTION('',(6.12303176911189E-017,0.0,-1.0));
#562=DIRECTION('',(1.0,6.12303176911189E-017,6.12303176911189E-017));
#563=CARTESIAN_POINT('',(-1.04091540114177E-016,-0.749999999729289,3.94999999982929));
#564=DIRECTION('',(-1.0,-1.83690953073357E-016,-6.12303176911189E-017));
#565=DIRECTION('',(1.83690953073357E-016,-1.0,1.1247455413666E-032));
#566=CARTESIAN_POINT('',(-2.4185975487992E-016,0.0,3.95));
#567=DIRECTION('',(6.12303176911189E-017,6.08202458555407E-049,-1.0));
#568=DIRECTION('',(1.0,6.12303176911189E-017,6.12303176911189E-017));
#569=CARTESIAN_POINT('',(-2.4185975487992E-016,0.0,3.95));
#570=DIRECTION('',(6.12303176911189E-017,6.08202458555407E-049,-1.0));
#571=DIRECTION('',(1.0,6.12303176911189E-017,6.12303176911189E-017));
#572=DIRECTION('',(6.12303176911189E-017,0.0,-1.0));
#573=CARTESIAN_POINT('',(-2.4185975487992E-016,0.0,3.95));
#574=DIRECTION('',(6.12303176911189E-017,6.08202458555407E-049,-1.0));
#575=DIRECTION('',(1.0,6.12303176911189E-017,6.12303176911189E-017));
#576=DIRECTION('',(-6.12303176911189E-017,-0.0,1.0));
#577=CARTESIAN_POINT('',(-7.95994129984545E-017,0.0,1.3));
#578=DIRECTION('',(6.12303176911189E-017,0.0,-1.0));
#579=DIRECTION('',(1.0,6.12303176911189E-017,6.12303176911189E-017));
#580=DIRECTION('',(6.12303176911189E-017,0.0,-1.0));
#581=CARTESIAN_POINT('',(-7.95994129984545E-017,0.0,1.3));
#582=DIRECTION('',(6.12303176911189E-017,0.0,-1.0));
#583=DIRECTION('',(1.0,6.12303176911189E-017,6.12303176911189E-017));
#584=DIRECTION('',(-6.12303176911189E-017,-0.0,1.0));
#585=CARTESIAN_POINT('',(-4.28612223837832E-017,0.0,0.7));
#586=DIRECTION('',(6.12303176911189E-017,0.0,-1.0));
#587=DIRECTION('',(1.0,6.12303176911189E-017,6.12303176911189E-017));
#588=CARTESIAN_POINT('',(-4.28612223837832E-017,0.0,0.7));
#589=DIRECTION('',(-6.12303176911189E-017,0.0,1.0));
#590=DIRECTION('',(0.0,-1.0,0.0));
#591=CARTESIAN_POINT('',(-4.28612223837832E-017,0.0,0.7));
#592=DIRECTION('',(6.12303176911189E-017,0.0,-1.0));
#593=DIRECTION('',(1.0,6.12303176911189E-017,6.12303176911189E-017));
#594=CARTESIAN_POINT('',(-7.95994129984545E-017,0.0,1.3));
#595=DIRECTION('',(6.12303176911189E-017,0.0,-1.0));
#596=DIRECTION('',(1.0,6.12303176911189E-017,6.12303176911189E-017));
#597=CARTESIAN_POINT('',(-7.95994129984545E-017,0.0,1.3));
#598=DIRECTION('',(6.12303176911189E-017,0.0,-1.0));
#599=DIRECTION('',(1.0,6.12303176911189E-017,6.12303176911189E-017));
#600=CARTESIAN_POINT('',(-2.4185975487992E-016,0.0,3.95));
#601=DIRECTION('',(6.12303176911189E-017,6.08202458555407E-049,-1.0));
#602=DIRECTION('',(1.0,6.12303176911189E-017,6.12303176911189E-017));
#603=CARTESIAN_POINT('',(-2.87782493148259E-016,0.0,4.7));
#604=DIRECTION('',(6.12303176911189E-017,0.0,-1.0));
#605=DIRECTION('',(1.0,6.12303176911189E-017,6.12303176911189E-017));
#606=DIRECTION('',(-6.12303176911189E-017,-0.0,1.0));
#607=CARTESIAN_POINT('',(-7.34763812293426E-017,0.0,1.2));
#608=DIRECTION('',(6.12303176911189E-017,4.83177576289529E-049,-1.0));
#609=DIRECTION('',(1.0,6.12303176911189E-017,6.12303176911189E-017));
#610=DIRECTION('',(6.12303176911189E-017,-0.0,-1.0));
#611=CARTESIAN_POINT('',(-2.57167334302699E-016,0.0,4.2));
#612=DIRECTION('',(6.12303176911189E-017,4.83177576289529E-049,-1.0));
#613=DIRECTION('',(1.0,6.12303176911189E-017,6.12303176911189E-017));
#614=CARTESIAN_POINT('',(-7.28640780524314E-017,0.0,1.19));
#615=DIRECTION('',(-7.49830360911069E-033,-1.0,1.22460635382238E-016));
#616=DIRECTION('',(0.0,1.22460635382238E-016,1.0));
#617=CARTESIAN_POINT('',(-7.34763812293426E-017,0.0,1.2));
#618=DIRECTION('',(-6.12303176911189E-017,0.0,1.0));
#619=DIRECTION('',(0.0,-1.0,0.0));
#620=CARTESIAN_POINT('',(-7.34763812293426E-017,0.0,1.2));
#621=DIRECTION('',(-6.12303176911189E-017,0.0,1.0));
#622=DIRECTION('',(0.0,-1.0,0.0));
#623=CARTESIAN_POINT('',(-7.34763812293426E-017,0.0,1.2));
#624=DIRECTION('',(-6.12303176911189E-017,0.0,1.0));
#625=DIRECTION('',(0.0,-1.0,0.0));
#626=CARTESIAN_POINT('',(-2.57167334302699E-016,0.0,4.2));
#627=DIRECTION('',(6.12303176911189E-017,4.83177576289529E-049,-1.0));
#628=DIRECTION('',(1.0,6.12303176911189E-017,6.12303176911189E-017));
#629=CARTESIAN_POINT('',(-7.34763812293426E-017,0.0,1.2));
#630=DIRECTION('',(6.12303176911189E-017,4.83177576289529E-049,-1.0));
#631=DIRECTION('',(1.0,6.12303176911189E-017,6.12303176911189E-017));
ENDSEC;
END-ISO-10303-21;
