ISO-10303-21;
HEADER;
FILE_DESCRIPTION(('STEP AP214'),'1');
FILE_NAME('HALDERN_EH_22050_0005.stp','2020-02-28T09:41:54',('TraceParts'),('TraceParts S.A.'),'Spatial InterOp 3D',' ',' ');
FILE_SCHEMA(('AUTOMOTIVE_DESIGN { 1 0 10303 214 1 1 1 1 }'));
ENDSEC;
DATA;
#1=MECHANICAL_DESIGN_GEOMETRIC_PRESENTATION_REPRESENTATION(' ',(#11,#12,#13,#14,#15,#16,#17,#18,#19,#20,#21,#22,#23,#24,#25,#26,#27),#7);
#2=PRODUCT_DEFINITION_CONTEXT('',#28,'design');
#3=APPLICATION_PROTOCOL_DEFINITION('INTERNATIONAL STANDARD','automotive_design',1994,#28);
#4=PRODUCT_CATEGORY_RELATIONSHIP('NONE','NONE',#29,#30);
#5=SHAPE_DEFINITION_REPRESENTATION(#31,#32);
#6=SHAPE_DEFINITION_REPRESENTATION(#31,#33);
#7= (GEOMETRIC_REPRESENTATION_CONTEXT(3)GLOBAL_UNCERTAINTY_ASSIGNED_CONTEXT((#36))GLOBAL_UNIT_ASSIGNED_CONTEXT((#38,#39,#40))REPRESENTATION_CONTEXT('NONE','WORKSPACE'));
#11=STYLED_ITEM('',(#42),#43);
#12=STYLED_ITEM('',(#44),#45);
#13=STYLED_ITEM('',(#46),#47);
#14=STYLED_ITEM('',(#48),#49);
#15=STYLED_ITEM('',(#50),#51);
#16=STYLED_ITEM('',(#52),#53);
#17=STYLED_ITEM('',(#54),#55);
#18=STYLED_ITEM('',(#56),#57);
#19=STYLED_ITEM('',(#58),#59);
#20=STYLED_ITEM('',(#60),#61);
#21=STYLED_ITEM('',(#62),#63);
#22=STYLED_ITEM('',(#64),#65);
#23=STYLED_ITEM('',(#66),#67);
#24=STYLED_ITEM('',(#68),#69);
#25=STYLED_ITEM('',(#70),#71);
#26=STYLED_ITEM('',(#72),#73);
#27=STYLED_ITEM('',(#74),#75);
#28=APPLICATION_CONTEXT(' ');
#29=PRODUCT_CATEGORY('part','NONE');
#30=PRODUCT_RELATED_PRODUCT_CATEGORY('detail',' ',(#76));
#31=PRODUCT_DEFINITION_SHAPE('NONE','NONE',#77);
#32=ADVANCED_BREP_SHAPE_REPRESENTATION('HALDERN_EH_22050_0005_1',(#78,#79),#7);
#33=ADVANCED_BREP_SHAPE_REPRESENTATION('HALDERN_EH_22050_0005_2',(#80,#81),#7);
#36=UNCERTAINTY_MEASURE_WITH_UNIT(LENGTH_MEASURE(1.0E-06),#38,'','');
#38= (CONVERSION_BASED_UNIT('MILLIMETRE',#84)LENGTH_UNIT()NAMED_UNIT(#87));
#39= (NAMED_UNIT(#89)PLANE_ANGLE_UNIT()SI_UNIT($,.RADIAN.));
#40= (NAMED_UNIT(#89)SOLID_ANGLE_UNIT()SI_UNIT($,.STERADIAN.));
#42=PRESENTATION_STYLE_ASSIGNMENT((#95));
#43=ADVANCED_FACE('',(#96),#97,.T.);
#44=PRESENTATION_STYLE_ASSIGNMENT((#98));
#45=ADVANCED_FACE('',(#99),#100,.T.);
#46=PRESENTATION_STYLE_ASSIGNMENT((#101));
#47=ADVANCED_FACE('',(#102),#103,.F.);
#48=PRESENTATION_STYLE_ASSIGNMENT((#104));
#49=ADVANCED_FACE('',(#105),#106,.T.);
#50=PRESENTATION_STYLE_ASSIGNMENT((#107));
#51=ADVANCED_FACE('',(#108),#109,.T.);
#52=PRESENTATION_STYLE_ASSIGNMENT((#110));
#53=ADVANCED_FACE('',(#111),#112,.T.);
#54=PRESENTATION_STYLE_ASSIGNMENT((#113));
#55=ADVANCED_FACE('',(#114),#115,.T.);
#56=PRESENTATION_STYLE_ASSIGNMENT((#116));
#57=ADVANCED_FACE('',(#117),#118,.T.);
#58=PRESENTATION_STYLE_ASSIGNMENT((#119));
#59=ADVANCED_FACE('',(#120),#121,.T.);
#60=PRESENTATION_STYLE_ASSIGNMENT((#122));
#61=ADVANCED_FACE('',(#123),#124,.F.);
#62=PRESENTATION_STYLE_ASSIGNMENT((#125));
#63=ADVANCED_FACE('',(#126),#127,.F.);
#64=PRESENTATION_STYLE_ASSIGNMENT((#128));
#65=ADVANCED_FACE('',(#129),#130,.T.);
#66=PRESENTATION_STYLE_ASSIGNMENT((#131));
#67=ADVANCED_FACE('',(#132),#133,.T.);
#68=PRESENTATION_STYLE_ASSIGNMENT((#134));
#69=ADVANCED_FACE('',(#135),#136,.T.);
#70=PRESENTATION_STYLE_ASSIGNMENT((#137));
#71=ADVANCED_FACE('',(#138,#139),#140,.T.);
#72=PRESENTATION_STYLE_ASSIGNMENT((#141));
#73=ADVANCED_FACE('',(#142),#143,.T.);
#74=PRESENTATION_STYLE_ASSIGNMENT((#144));
#75=ADVANCED_FACE('',(#145),#146,.T.);
#76=PRODUCT('HALDERN_EH_22050_0005_1','HALDERN_EH_22050_0005_1','PART-HALDERN_EH_22050_0005_1-DESC',(#147));
#77=PRODUCT_DEFINITION('','NONE',#148,#2);
#78=MANIFOLD_SOLID_BREP('HALDERN_EH_22050_0005_1',#149);
#79=AXIS2_PLACEMENT_3D('',#150,#151,#152);
#80=MANIFOLD_SOLID_BREP('HALDERN_EH_22050_0005_2',#153);
#81=AXIS2_PLACEMENT_3D('',#154,#155,#156);
#84=LENGTH_MEASURE_WITH_UNIT(LENGTH_MEASURE(1.0),#157);
#87=DIMENSIONAL_EXPONENTS(1.0,0.0,0.0,0.0,0.0,0.0,0.0);
#89=DIMENSIONAL_EXPONENTS(0.0,0.0,0.0,0.0,0.0,0.0,0.0);
#95=SURFACE_STYLE_USAGE(.BOTH.,#158);
#96=FACE_OUTER_BOUND('',#159,.T.);
#97=CYLINDRICAL_SURFACE('',#160,2.5);
#98=SURFACE_STYLE_USAGE(.BOTH.,#161);
#99=FACE_OUTER_BOUND('',#162,.T.);
#100=CONICAL_SURFACE('',#163,2.25,0.394791119699761);
#101=SURFACE_STYLE_USAGE(.BOTH.,#164);
#102=FACE_OUTER_BOUND('',#165,.T.);
#103=CYLINDRICAL_SURFACE('',#166,1.5);
#104=SURFACE_STYLE_USAGE(.BOTH.,#167);
#105=FACE_OUTER_BOUND('',#168,.T.);
#106=CONICAL_SURFACE('',#169,2.25,0.394791119699761);
#107=SURFACE_STYLE_USAGE(.BOTH.,#170);
#108=FACE_OUTER_BOUND('',#171,.T.);
#109=PLANE('',#172);
#110=SURFACE_STYLE_USAGE(.BOTH.,#173);
#111=FACE_OUTER_BOUND('',#174,.T.);
#112=PLANE('',#175);
#113=SURFACE_STYLE_USAGE(.BOTH.,#176);
#114=FACE_OUTER_BOUND('',#177,.T.);
#115=PLANE('',#178);
#116=SURFACE_STYLE_USAGE(.BOTH.,#179);
#117=FACE_OUTER_BOUND('',#180,.T.);
#118=CONICAL_SURFACE('',#181,2.25,0.394791119699761);
#119=SURFACE_STYLE_USAGE(.BOTH.,#182);
#120=FACE_OUTER_BOUND('',#183,.T.);
#121=PLANE('',#184);
#122=SURFACE_STYLE_USAGE(.BOTH.,#185);
#123=FACE_OUTER_BOUND('',#186,.T.);
#124=CYLINDRICAL_SURFACE('',#187,1.5);
#125=SURFACE_STYLE_USAGE(.BOTH.,#188);
#126=FACE_OUTER_BOUND('',#189,.T.);
#127=PLANE('',#190);
#128=SURFACE_STYLE_USAGE(.BOTH.,#191);
#129=FACE_OUTER_BOUND('',#192,.T.);
#130=CONICAL_SURFACE('',#193,2.25,0.394791119699761);
#131=SURFACE_STYLE_USAGE(.BOTH.,#194);
#132=FACE_OUTER_BOUND('',#195,.T.);
#133=CYLINDRICAL_SURFACE('',#196,2.5);
#134=SURFACE_STYLE_USAGE(.BOTH.,#197);
#135=FACE_OUTER_BOUND('',#198,.T.);
#136=PLANE('',#199);
#137=SURFACE_STYLE_USAGE(.BOTH.,#200);
#138=FACE_BOUND('',#201,.T.);
#139=FACE_OUTER_BOUND('',#202,.T.);
#140=PLANE('',#203);
#141=SURFACE_STYLE_USAGE(.BOTH.,#204);
#142=FACE_OUTER_BOUND('',#205,.T.);
#143=SPHERICAL_SURFACE('',#206,1.5);
#144=SURFACE_STYLE_USAGE(.BOTH.,#207);
#145=FACE_OUTER_BOUND('',#208,.T.);
#146=SPHERICAL_SURFACE('',#209,1.5);
#147=PRODUCT_CONTEXT('',#28,'mechanical');
#148=PRODUCT_DEFINITION_FORMATION_WITH_SPECIFIED_SOURCE(' ','NONE',#76,.NOT_KNOWN.);
#149=CLOSED_SHELL('',(#43,#45,#47,#49,#51,#53,#55,#57,#59,#61,#63,#65,#67,#69,#71));
#150=CARTESIAN_POINT('',(0.0,0.0,0.0));
#151=DIRECTION('',(0.0,0.0,1.0));
#152=DIRECTION('',(1.0,0.0,0.0));
#153=CLOSED_SHELL('',(#73,#75));
#154=CARTESIAN_POINT('',(0.0,0.0,0.0));
#155=DIRECTION('',(0.0,0.0,1.0));
#156=DIRECTION('',(1.0,0.0,0.0));
#157= (NAMED_UNIT(#87)LENGTH_UNIT()SI_UNIT(.MILLI.,.METRE.));
#158=SURFACE_SIDE_STYLE('',(#211));
#159=EDGE_LOOP('',(#212,#213,#214,#215,#216,#217));
#160=AXIS2_PLACEMENT_3D('',#218,#219,#220);
#161=SURFACE_SIDE_STYLE('',(#221));
#162=EDGE_LOOP('',(#222,#223,#224,#225,#226));
#163=AXIS2_PLACEMENT_3D('',#227,#228,#229);
#164=SURFACE_SIDE_STYLE('',(#230));
#165=EDGE_LOOP('',(#231,#232,#233,#234));
#166=AXIS2_PLACEMENT_3D('',#235,#236,#237);
#167=SURFACE_SIDE_STYLE('',(#238));
#168=EDGE_LOOP('',(#239,#240,#241,#242,#243,#244,#245,#246,#247));
#169=AXIS2_PLACEMENT_3D('',#248,#249,#250);
#170=SURFACE_SIDE_STYLE('',(#251));
#171=EDGE_LOOP('',(#252,#253,#254,#255));
#172=AXIS2_PLACEMENT_3D('',#256,#257,#258);
#173=SURFACE_SIDE_STYLE('',(#259));
#174=EDGE_LOOP('',(#260,#261,#262,#263));
#175=AXIS2_PLACEMENT_3D('',#264,#265,#266);
#176=SURFACE_SIDE_STYLE('',(#267));
#177=EDGE_LOOP('',(#268,#269,#270,#271));
#178=AXIS2_PLACEMENT_3D('',#272,#273,#274);
#179=SURFACE_SIDE_STYLE('',(#275));
#180=EDGE_LOOP('',(#276,#277,#278,#279,#280,#281,#282,#283,#284));
#181=AXIS2_PLACEMENT_3D('',#285,#286,#287);
#182=SURFACE_SIDE_STYLE('',(#288));
#183=EDGE_LOOP('',(#289,#290,#291));
#184=AXIS2_PLACEMENT_3D('',#292,#293,#294);
#185=SURFACE_SIDE_STYLE('',(#295));
#186=EDGE_LOOP('',(#296,#297,#298,#299));
#187=AXIS2_PLACEMENT_3D('',#300,#301,#302);
#188=SURFACE_SIDE_STYLE('',(#303));
#189=EDGE_LOOP('',(#304,#305));
#190=AXIS2_PLACEMENT_3D('',#306,#307,#308);
#191=SURFACE_SIDE_STYLE('',(#309));
#192=EDGE_LOOP('',(#310,#311,#312,#313,#314));
#193=AXIS2_PLACEMENT_3D('',#315,#316,#317);
#194=SURFACE_SIDE_STYLE('',(#318));
#195=EDGE_LOOP('',(#319,#320,#321,#322,#323,#324));
#196=AXIS2_PLACEMENT_3D('',#325,#326,#327);
#197=SURFACE_SIDE_STYLE('',(#328));
#198=EDGE_LOOP('',(#329,#330,#331));
#199=AXIS2_PLACEMENT_3D('',#332,#333,#334);
#200=SURFACE_SIDE_STYLE('',(#335));
#201=EDGE_LOOP('',(#336,#337));
#202=EDGE_LOOP('',(#338,#339));
#203=AXIS2_PLACEMENT_3D('',#340,#341,#342);
#204=SURFACE_SIDE_STYLE('',(#343));
#205=EDGE_LOOP('',(#344,#345));
#206=AXIS2_PLACEMENT_3D('',#346,#347,#348);
#207=SURFACE_SIDE_STYLE('',(#349));
#208=EDGE_LOOP('',(#350,#351));
#209=AXIS2_PLACEMENT_3D('',#352,#353,#354);
#211=SURFACE_STYLE_FILL_AREA(#355);
#212=ORIENTED_EDGE('',*,*,#356,.F.);
#213=ORIENTED_EDGE('',*,*,#357,.T.);
#214=ORIENTED_EDGE('',*,*,#358,.T.);
#215=ORIENTED_EDGE('',*,*,#359,.F.);
#216=ORIENTED_EDGE('',*,*,#360,.T.);
#217=ORIENTED_EDGE('',*,*,#361,.T.);
#218=CARTESIAN_POINT('',(-6.9,0.0,0.0));
#219=DIRECTION('',(1.0,0.0,0.0));
#220=DIRECTION('',(0.0,0.0,-1.0));
#221=SURFACE_STYLE_FILL_AREA(#362);
#222=ORIENTED_EDGE('',*,*,#363,.F.);
#223=ORIENTED_EDGE('',*,*,#364,.F.);
#224=ORIENTED_EDGE('',*,*,#365,.F.);
#225=ORIENTED_EDGE('',*,*,#366,.F.);
#226=ORIENTED_EDGE('',*,*,#361,.F.);
#227=CARTESIAN_POINT('',(-1.5,0.0,-1.46952762458685E-16));
#228=DIRECTION('',(-1.0,0.0,-2.44921270764475E-16));
#229=DIRECTION('',(0.0,1.0,0.0));
#230=SURFACE_STYLE_FILL_AREA(#367);
#231=ORIENTED_EDGE('',*,*,#368,.F.);
#232=ORIENTED_EDGE('',*,*,#369,.F.);
#233=ORIENTED_EDGE('',*,*,#370,.F.);
#234=ORIENTED_EDGE('',*,*,#371,.T.);
#235=CARTESIAN_POINT('',(-3.9,0.0,0.0));
#236=DIRECTION('',(1.0,0.0,0.0));
#237=DIRECTION('',(0.0,0.0,-1.0));
#238=SURFACE_STYLE_FILL_AREA(#372);
#239=ORIENTED_EDGE('',*,*,#373,.F.);
#240=ORIENTED_EDGE('',*,*,#374,.F.);
#241=ORIENTED_EDGE('',*,*,#375,.T.);
#242=ORIENTED_EDGE('',*,*,#376,.T.);
#243=ORIENTED_EDGE('',*,*,#377,.T.);
#244=ORIENTED_EDGE('',*,*,#378,.F.);
#245=ORIENTED_EDGE('',*,*,#379,.F.);
#246=ORIENTED_EDGE('',*,*,#380,.F.);
#247=ORIENTED_EDGE('',*,*,#358,.F.);
#248=CARTESIAN_POINT('',(-12.3,0.0,7.34763812293426E-17));
#249=DIRECTION('',(1.0,-0.0,1.22460635382238E-16));
#250=DIRECTION('',(0.0,1.0,0.0));
#251=SURFACE_STYLE_FILL_AREA(#381);
#252=ORIENTED_EDGE('',*,*,#382,.F.);
#253=ORIENTED_EDGE('',*,*,#383,.F.);
#254=ORIENTED_EDGE('',*,*,#375,.F.);
#255=ORIENTED_EDGE('',*,*,#384,.F.);
#256=CARTESIAN_POINT('',(-13.0,0.4,1.0));
#257=DIRECTION('',(0.0,-1.0,0.0));
#258=DIRECTION('',(0.0,0.0,-1.0));
#259=SURFACE_STYLE_FILL_AREA(#385);
#260=ORIENTED_EDGE('',*,*,#386,.F.);
#261=ORIENTED_EDGE('',*,*,#387,.F.);
#262=ORIENTED_EDGE('',*,*,#376,.F.);
#263=ORIENTED_EDGE('',*,*,#383,.T.);
#264=CARTESIAN_POINT('',(-12.1,0.0,1.0));
#265=DIRECTION('',(-1.0,0.0,0.0));
#266=DIRECTION('',(0.0,0.0,1.0));
#267=SURFACE_STYLE_FILL_AREA(#388);
#268=ORIENTED_EDGE('',*,*,#389,.F.);
#269=ORIENTED_EDGE('',*,*,#390,.F.);
#270=ORIENTED_EDGE('',*,*,#377,.F.);
#271=ORIENTED_EDGE('',*,*,#387,.T.);
#272=CARTESIAN_POINT('',(-13.0,-0.4,1.0));
#273=DIRECTION('',(0.0,1.0,0.0));
#274=DIRECTION('',(0.0,0.0,1.0));
#275=SURFACE_STYLE_FILL_AREA(#391);
#276=ORIENTED_EDGE('',*,*,#373,.T.);
#277=ORIENTED_EDGE('',*,*,#357,.F.);
#278=ORIENTED_EDGE('',*,*,#392,.F.);
#279=ORIENTED_EDGE('',*,*,#379,.T.);
#280=ORIENTED_EDGE('',*,*,#393,.F.);
#281=ORIENTED_EDGE('',*,*,#389,.T.);
#282=ORIENTED_EDGE('',*,*,#386,.T.);
#283=ORIENTED_EDGE('',*,*,#382,.T.);
#284=ORIENTED_EDGE('',*,*,#394,.F.);
#285=CARTESIAN_POINT('',(-12.3,0.0,7.34763812293426E-17));
#286=DIRECTION('',(1.0,-0.0,1.22460635382238E-16));
#287=DIRECTION('',(0.0,1.0,0.0));
#288=SURFACE_STYLE_FILL_AREA(#395);
#289=ORIENTED_EDGE('',*,*,#384,.T.);
#290=ORIENTED_EDGE('',*,*,#374,.T.);
#291=ORIENTED_EDGE('',*,*,#394,.T.);
#292=CARTESIAN_POINT('',(-12.9,0.0,0.0));
#293=DIRECTION('',(-1.0,0.0,0.0));
#294=DIRECTION('',(0.0,0.0,1.0));
#295=SURFACE_STYLE_FILL_AREA(#396);
#296=ORIENTED_EDGE('',*,*,#368,.T.);
#297=ORIENTED_EDGE('',*,*,#397,.T.);
#298=ORIENTED_EDGE('',*,*,#370,.T.);
#299=ORIENTED_EDGE('',*,*,#398,.F.);
#300=CARTESIAN_POINT('',(-3.9,0.0,0.0));
#301=DIRECTION('',(1.0,0.0,0.0));
#302=DIRECTION('',(0.0,0.0,-1.0));
#303=SURFACE_STYLE_FILL_AREA(#399);
#304=ORIENTED_EDGE('',*,*,#397,.F.);
#305=ORIENTED_EDGE('',*,*,#371,.F.);
#306=CARTESIAN_POINT('',(-9.9,0.0,0.0));
#307=DIRECTION('',(-1.0,0.0,0.0));
#308=DIRECTION('',(0.0,0.0,1.0));
#309=SURFACE_STYLE_FILL_AREA(#400);
#310=ORIENTED_EDGE('',*,*,#363,.T.);
#311=ORIENTED_EDGE('',*,*,#360,.F.);
#312=ORIENTED_EDGE('',*,*,#401,.F.);
#313=ORIENTED_EDGE('',*,*,#365,.T.);
#314=ORIENTED_EDGE('',*,*,#402,.F.);
#315=CARTESIAN_POINT('',(-1.5,0.0,-1.46952762458685E-16));
#316=DIRECTION('',(-1.0,0.0,-2.44921270764475E-16));
#317=DIRECTION('',(0.0,1.0,0.0));
#318=SURFACE_STYLE_FILL_AREA(#403);
#319=ORIENTED_EDGE('',*,*,#356,.T.);
#320=ORIENTED_EDGE('',*,*,#366,.T.);
#321=ORIENTED_EDGE('',*,*,#401,.T.);
#322=ORIENTED_EDGE('',*,*,#359,.T.);
#323=ORIENTED_EDGE('',*,*,#380,.T.);
#324=ORIENTED_EDGE('',*,*,#392,.T.);
#325=CARTESIAN_POINT('',(-6.9,0.0,0.0));
#326=DIRECTION('',(1.0,0.0,0.0));
#327=DIRECTION('',(0.0,0.0,-1.0));
#328=SURFACE_STYLE_FILL_AREA(#404);
#329=ORIENTED_EDGE('',*,*,#390,.T.);
#330=ORIENTED_EDGE('',*,*,#393,.T.);
#331=ORIENTED_EDGE('',*,*,#378,.T.);
#332=CARTESIAN_POINT('',(-12.9,0.0,0.0));
#333=DIRECTION('',(-1.0,0.0,0.0));
#334=DIRECTION('',(0.0,0.0,1.0));
#335=SURFACE_STYLE_FILL_AREA(#405);
#336=ORIENTED_EDGE('',*,*,#369,.T.);
#337=ORIENTED_EDGE('',*,*,#398,.T.);
#338=ORIENTED_EDGE('',*,*,#402,.T.);
#339=ORIENTED_EDGE('',*,*,#364,.T.);
#340=CARTESIAN_POINT('',(-0.9,0.0,0.0));
#341=DIRECTION('',(1.0,0.0,0.0));
#342=DIRECTION('',(0.0,0.0,-1.0));
#343=SURFACE_STYLE_FILL_AREA(#406);
#344=ORIENTED_EDGE('',*,*,#407,.F.);
#345=ORIENTED_EDGE('',*,*,#408,.F.);
#346=CARTESIAN_POINT('',(-1.5,0.0,0.0));
#347=DIRECTION('',(0.0,0.0,1.0));
#348=DIRECTION('',(1.0,0.0,0.0));
#349=SURFACE_STYLE_FILL_AREA(#409);
#350=ORIENTED_EDGE('',*,*,#407,.T.);
#351=ORIENTED_EDGE('',*,*,#408,.T.);
#352=CARTESIAN_POINT('',(-1.5,0.0,0.0));
#353=DIRECTION('',(0.0,0.0,1.0));
#354=DIRECTION('',(1.0,0.0,0.0));
#355=FILL_AREA_STYLE('',(#410));
#356=EDGE_CURVE('',#411,#412,#413,.T.);
#357=EDGE_CURVE('',#411,#414,#415,.T.);
#358=EDGE_CURVE('',#414,#416,#417,.T.);
#359=EDGE_CURVE('',#418,#416,#419,.T.);
#360=EDGE_CURVE('',#418,#420,#421,.T.);
#361=EDGE_CURVE('',#420,#412,#422,.T.);
#362=FILL_AREA_STYLE('',(#423));
#363=EDGE_CURVE('',#424,#420,#425,.T.);
#364=EDGE_CURVE('',#426,#424,#427,.T.);
#365=EDGE_CURVE('',#428,#426,#429,.T.);
#366=EDGE_CURVE('',#412,#428,#430,.T.);
#367=FILL_AREA_STYLE('',(#431));
#368=EDGE_CURVE('',#432,#433,#434,.T.);
#369=EDGE_CURVE('',#435,#432,#436,.T.);
#370=EDGE_CURVE('',#437,#435,#438,.T.);
#371=EDGE_CURVE('',#437,#433,#439,.T.);
#372=FILL_AREA_STYLE('',(#440));
#373=EDGE_CURVE('',#441,#414,#442,.T.);
#374=EDGE_CURVE('',#443,#441,#444,.T.);
#375=EDGE_CURVE('',#443,#445,#446,.T.);
#376=EDGE_CURVE('',#445,#447,#448,.T.);
#377=EDGE_CURVE('',#447,#449,#450,.T.);
#378=EDGE_CURVE('',#451,#449,#452,.T.);
#379=EDGE_CURVE('',#453,#451,#454,.T.);
#380=EDGE_CURVE('',#416,#453,#455,.T.);
#381=FILL_AREA_STYLE('',(#456));
#382=EDGE_CURVE('',#457,#458,#459,.T.);
#383=EDGE_CURVE('',#445,#457,#460,.T.);
#384=EDGE_CURVE('',#458,#443,#461,.T.);
#385=FILL_AREA_STYLE('',(#462));
#386=EDGE_CURVE('',#463,#457,#464,.T.);
#387=EDGE_CURVE('',#447,#463,#465,.T.);
#388=FILL_AREA_STYLE('',(#466));
#389=EDGE_CURVE('',#467,#463,#468,.T.);
#390=EDGE_CURVE('',#449,#467,#469,.T.);
#391=FILL_AREA_STYLE('',(#470));
#392=EDGE_CURVE('',#453,#411,#471,.T.);
#393=EDGE_CURVE('',#467,#451,#472,.T.);
#394=EDGE_CURVE('',#441,#458,#473,.T.);
#395=FILL_AREA_STYLE('',(#474));
#396=FILL_AREA_STYLE('',(#475));
#397=EDGE_CURVE('',#433,#437,#476,.T.);
#398=EDGE_CURVE('',#432,#435,#477,.T.);
#399=FILL_AREA_STYLE('',(#478));
#400=FILL_AREA_STYLE('',(#479));
#401=EDGE_CURVE('',#428,#418,#480,.T.);
#402=EDGE_CURVE('',#424,#426,#481,.T.);
#403=FILL_AREA_STYLE('',(#482));
#404=FILL_AREA_STYLE('',(#483));
#405=FILL_AREA_STYLE('',(#484));
#406=FILL_AREA_STYLE('',(#485));
#407=EDGE_CURVE('',#486,#487,#488,.T.);
#408=EDGE_CURVE('',#487,#486,#489,.T.);
#409=FILL_AREA_STYLE('',(#490));
#410=FILL_AREA_STYLE_COLOUR('',#491);
#411=VERTEX_POINT('',#492);
#412=VERTEX_POINT('',#493);
#413=LINE('',#494,#495);
#414=VERTEX_POINT('',#496);
#415=CIRCLE('',#497,2.5);
#416=VERTEX_POINT('',#498);
#417=CIRCLE('',#499,2.5);
#418=VERTEX_POINT('',#500);
#419=LINE('',#501,#502);
#420=VERTEX_POINT('',#503);
#421=CIRCLE('',#504,2.5);
#422=CIRCLE('',#505,2.5);
#423=FILL_AREA_STYLE_COLOUR('',#506);
#424=VERTEX_POINT('',#507);
#425=LINE('',#508,#509);
#426=VERTEX_POINT('',#510);
#427=CIRCLE('',#511,2.0);
#428=VERTEX_POINT('',#512);
#429=LINE('',#513,#514);
#430=CIRCLE('',#515,2.5);
#431=FILL_AREA_STYLE_COLOUR('',#516);
#432=VERTEX_POINT('',#517);
#433=VERTEX_POINT('',#518);
#434=LINE('',#519,#520);
#435=VERTEX_POINT('',#521);
#436=CIRCLE('',#522,1.5);
#437=VERTEX_POINT('',#523);
#438=LINE('',#524,#525);
#439=CIRCLE('',#526,1.5);
#440=FILL_AREA_STYLE_COLOUR('',#527);
#441=VERTEX_POINT('',#528);
#442=LINE('',#529,#530);
#443=VERTEX_POINT('',#531);
#444=CIRCLE('',#532,2.0);
#445=VERTEX_POINT('',#533);
#446=(B_SPLINE_CURVE(2,(#535,#536,#537),.UNSPECIFIED.,.F.,.F.)B_SPLINE_CURVE_WITH_KNOTS((3,3),(0.0,0.868940119149786),.UNSPECIFIED.)RATIONAL_B_SPLINE_CURVE((1.0,1.00307779233657,1.0))BOUNDED_CURVE()REPRESENTATION_ITEM('')GEOMETRIC_REPRESENTATION_ITEM()CURVE());
#447=VERTEX_POINT('',#544);
#448=CIRCLE('',#545,2.33333333333333);
#449=VERTEX_POINT('',#546);
#450=(B_SPLINE_CURVE(2,(#548,#549,#550),.UNSPECIFIED.,.F.,.F.)B_SPLINE_CURVE_WITH_KNOTS((3,3),(0.0,0.868940119149786),.UNSPECIFIED.)RATIONAL_B_SPLINE_CURVE((1.0,1.00307779233657,1.0))BOUNDED_CURVE()REPRESENTATION_ITEM('')GEOMETRIC_REPRESENTATION_ITEM()CURVE());
#451=VERTEX_POINT('',#557);
#452=CIRCLE('',#558,2.0);
#453=VERTEX_POINT('',#559);
#454=LINE('',#560,#561);
#455=CIRCLE('',#562,2.5);
#456=FILL_AREA_STYLE_COLOUR('',#563);
#457=VERTEX_POINT('',#564);
#458=VERTEX_POINT('',#565);
#459=(B_SPLINE_CURVE(2,(#567,#568,#569),.UNSPECIFIED.,.F.,.F.)B_SPLINE_CURVE_WITH_KNOTS((3,3),(0.0,0.868940119149786),.UNSPECIFIED.)RATIONAL_B_SPLINE_CURVE((1.0,1.00307779234007,1.0))BOUNDED_CURVE()REPRESENTATION_ITEM('')GEOMETRIC_REPRESENTATION_ITEM()CURVE());
#460=LINE('',#576,#577);
#461=LINE('',#578,#579);
#462=FILL_AREA_STYLE_COLOUR('',#580);
#463=VERTEX_POINT('',#581);
#464=CIRCLE('',#582,2.33333333333333);
#465=LINE('',#583,#584);
#466=FILL_AREA_STYLE_COLOUR('',#585);
#467=VERTEX_POINT('',#586);
#468=(B_SPLINE_CURVE(2,(#588,#589,#590),.UNSPECIFIED.,.F.,.F.)B_SPLINE_CURVE_WITH_KNOTS((3,3),(0.0,0.868940119149786),.UNSPECIFIED.)RATIONAL_B_SPLINE_CURVE((1.0,1.00307779234007,1.0))BOUNDED_CURVE()REPRESENTATION_ITEM('')GEOMETRIC_REPRESENTATION_ITEM()CURVE());
#469=LINE('',#597,#598);
#470=FILL_AREA_STYLE_COLOUR('',#599);
#471=CIRCLE('',#600,2.5);
#472=CIRCLE('',#601,2.0);
#473=CIRCLE('',#602,2.0);
#474=FILL_AREA_STYLE_COLOUR('',#603);
#475=FILL_AREA_STYLE_COLOUR('',#604);
#476=CIRCLE('',#605,1.5);
#477=CIRCLE('',#606,1.5);
#478=FILL_AREA_STYLE_COLOUR('',#607);
#479=FILL_AREA_STYLE_COLOUR('',#608);
#480=CIRCLE('',#609,2.5);
#481=CIRCLE('',#610,2.0);
#482=FILL_AREA_STYLE_COLOUR('',#611);
#483=FILL_AREA_STYLE_COLOUR('',#612);
#484=FILL_AREA_STYLE_COLOUR('',#613);
#485=FILL_AREA_STYLE_COLOUR('',#614);
#486=VERTEX_POINT('',#615);
#487=VERTEX_POINT('',#616);
#488=CIRCLE('',#617,1.5);
#489=CIRCLE('',#618,1.5);
#490=FILL_AREA_STYLE_COLOUR('',#619);
#491=COLOUR_RGB('',0.588235318660736,0.588235318660736,0.588235318660736);
#492=CARTESIAN_POINT('',(-11.7,-3.06151588455594E-16,-2.5));
#493=CARTESIAN_POINT('',(-2.1,-3.06151588455594E-16,-2.5));
#494=CARTESIAN_POINT('',(-6.9,-3.06151588455594E-16,-2.5));
#495=VECTOR('',#620,1.0);
#496=CARTESIAN_POINT('',(-11.7,2.5,1.46952762458685E-16));
#497=AXIS2_PLACEMENT_3D('',#621,#622,#623);
#498=CARTESIAN_POINT('',(-11.7,3.06151588455594E-16,2.5));
#499=AXIS2_PLACEMENT_3D('',#624,#625,#626);
#500=CARTESIAN_POINT('',(-2.1,3.06151588455594E-16,2.5));
#501=CARTESIAN_POINT('',(-6.9,3.06151588455594E-16,2.5));
#502=VECTOR('',#627,1.0);
#503=CARTESIAN_POINT('',(-2.1,2.5,-2.93905524917371E-16));
#504=AXIS2_PLACEMENT_3D('',#628,#629,#630);
#505=AXIS2_PLACEMENT_3D('',#631,#632,#633);
#506=COLOUR_RGB('',0.588235318660736,0.588235318660736,0.588235318660736);
#507=CARTESIAN_POINT('',(-0.9,2.0,0.0));
#508=CARTESIAN_POINT('',(-1.5,2.25,-4.2248919206872E-16));
#509=VECTOR('',#634,1.0);
#510=CARTESIAN_POINT('',(-0.9,-2.0,2.44921270764475E-16));
#511=AXIS2_PLACEMENT_3D('',#635,#636,#637);
#512=CARTESIAN_POINT('',(-2.1,-2.5,1.22460635382239E-17));
#513=CARTESIAN_POINT('',(-1.5,-2.25,1.2858366715135E-16));
#514=VECTOR('',#638,1.0);
#515=AXIS2_PLACEMENT_3D('',#639,#640,#641);
#516=COLOUR_RGB('',0.588235318660736,0.588235318660736,0.588235318660736);
#517=CARTESIAN_POINT('',(-0.9,-1.83690953073357E-16,-1.5));
#518=CARTESIAN_POINT('',(-9.9,0.0,-1.5));
#519=CARTESIAN_POINT('',(-3.9,-1.83690953073357E-16,-1.5));
#520=VECTOR('',#642,1.0);
#521=CARTESIAN_POINT('',(-0.9,1.83690953073357E-16,1.5));
#522=AXIS2_PLACEMENT_3D('',#643,#644,#645);
#523=CARTESIAN_POINT('',(-9.9,1.83690953073357E-16,1.5));
#524=CARTESIAN_POINT('',(-3.9,1.83690953073357E-16,1.5));
#525=VECTOR('',#646,1.0);
#526=AXIS2_PLACEMENT_3D('',#647,#648,#649);
#527=COLOUR_RGB('',0.588235318660736,0.588235318660736,0.588235318660736);
#528=CARTESIAN_POINT('',(-12.9,2.0,2.44921270764475E-16));
#529=CARTESIAN_POINT('',(-12.3,2.25,3.49012810839378E-16));
#530=VECTOR('',#650,1.0);
#531=CARTESIAN_POINT('',(-12.9,0.4,1.95959179422654));
#532=AXIS2_PLACEMENT_3D('',#651,#652,#653);
#533=CARTESIAN_POINT('',(-12.1,0.4,2.29879195327556));
#535=CARTESIAN_POINT('',(-12.9,0.4,1.95959179422654));
#536=CARTESIAN_POINT('',(-12.5318618686537,0.4,2.11614571378561));
#537=CARTESIAN_POINT('',(-12.1,0.4,2.29879195327556));
#544=CARTESIAN_POINT('',(-12.1,-0.4,2.29879195327556));
#545=AXIS2_PLACEMENT_3D('',#654,#655,#656);
#546=CARTESIAN_POINT('',(-12.9,-0.4,1.95959179422654));
#548=CARTESIAN_POINT('',(-12.1,-0.4,2.29879195327556));
#549=CARTESIAN_POINT('',(-12.5318618686537,-0.4,2.11614571378561));
#550=CARTESIAN_POINT('',(-12.9,-0.4,1.95959179422654));
#557=CARTESIAN_POINT('',(-12.9,-2.0,-2.44921270764476E-16));
#558=AXIS2_PLACEMENT_3D('',#657,#658,#659);
#559=CARTESIAN_POINT('',(-11.7,-2.5,-1.59198825996909E-16));
#560=CARTESIAN_POINT('',(-12.3,-2.25,-2.02060048380692E-16));
#561=VECTOR('',#660,1.0);
#562=AXIS2_PLACEMENT_3D('',#661,#662,#663);
#563=COLOUR_RGB('',0.588235318660736,0.588235318660736,0.588235318660736);
#564=CARTESIAN_POINT('',(-12.1,0.4,-2.29879195327556));
#565=CARTESIAN_POINT('',(-12.9,0.4,-1.95959179422654));
#567=CARTESIAN_POINT('',(-12.1,0.4,-2.29879195327556));
#568=CARTESIAN_POINT('',(-12.5318618686582,0.4,-2.11614571378369));
#569=CARTESIAN_POINT('',(-12.9,0.4,-1.95959179422654));
#576=CARTESIAN_POINT('',(-12.1,0.4,1.0));
#577=VECTOR('',#664,1.0);
#578=CARTESIAN_POINT('',(-12.9,0.4,0.5));
#579=VECTOR('',#665,1.0);
#580=COLOUR_RGB('',0.588235318660736,0.588235318660736,0.588235318660736);
#581=CARTESIAN_POINT('',(-12.1,-0.4,-2.29879195327556));
#582=AXIS2_PLACEMENT_3D('',#666,#667,#668);
#583=CARTESIAN_POINT('',(-12.1,-0.4,1.0));
#584=VECTOR('',#669,1.0);
#585=COLOUR_RGB('',0.588235318660736,0.588235318660736,0.588235318660736);
#586=CARTESIAN_POINT('',(-12.9,-0.4,-1.95959179422654));
#588=CARTESIAN_POINT('',(-12.9,-0.4,-1.95959179422654));
#589=CARTESIAN_POINT('',(-12.5318618686582,-0.4,-2.11614571378369));
#590=CARTESIAN_POINT('',(-12.1,-0.4,-2.29879195327556));
#597=CARTESIAN_POINT('',(-12.9,-0.4,0.5));
#598=VECTOR('',#670,1.0);
#599=COLOUR_RGB('',0.588235318660736,0.588235318660736,0.588235318660736);
#600=AXIS2_PLACEMENT_3D('',#671,#672,#673);
#601=AXIS2_PLACEMENT_3D('',#674,#675,#676);
#602=AXIS2_PLACEMENT_3D('',#677,#678,#679);
#603=COLOUR_RGB('',0.588235318660736,0.588235318660736,0.588235318660736);
#604=COLOUR_RGB('',0.588235318660736,0.588235318660736,0.588235318660736);
#605=AXIS2_PLACEMENT_3D('',#680,#681,#682);
#606=AXIS2_PLACEMENT_3D('',#683,#684,#685);
#607=COLOUR_RGB('',0.588235318660736,0.588235318660736,0.588235318660736);
#608=COLOUR_RGB('',0.588235318660736,0.588235318660736,0.588235318660736);
#609=AXIS2_PLACEMENT_3D('',#686,#687,#688);
#610=AXIS2_PLACEMENT_3D('',#689,#690,#691);
#611=COLOUR_RGB('',0.588235318660736,0.588235318660736,0.588235318660736);
#612=COLOUR_RGB('',0.588235318660736,0.588235318660736,0.588235318660736);
#613=COLOUR_RGB('',0.588235318660736,0.588235318660736,0.588235318660736);
#614=COLOUR_RGB('',0.752941191196442,0.752941191196442,0.752941191196442);
#615=CARTESIAN_POINT('',(-1.5,-2.24949108273321E-32,-1.5));
#616=CARTESIAN_POINT('',(-1.5,0.0,1.5));
#617=AXIS2_PLACEMENT_3D('',#692,#693,#694);
#618=AXIS2_PLACEMENT_3D('',#695,#696,#697);
#619=COLOUR_RGB('',0.752941191196442,0.752941191196442,0.752941191196442);
#620=DIRECTION('',(1.0,0.0,0.0));
#621=CARTESIAN_POINT('',(-11.7,0.0,0.0));
#622=DIRECTION('',(1.0,0.0,1.22460635382238E-16));
#623=DIRECTION('',(1.22460635382238E-16,0.0,-1.0));
#624=CARTESIAN_POINT('',(-11.7,0.0,0.0));
#625=DIRECTION('',(1.0,0.0,1.22460635382238E-16));
#626=DIRECTION('',(1.22460635382238E-16,0.0,-1.0));
#627=DIRECTION('',(-1.0,-0.0,-0.0));
#628=CARTESIAN_POINT('',(-2.1,0.0,0.0));
#629=DIRECTION('',(-1.0,0.0,-2.44921270764475E-16));
#630=DIRECTION('',(2.44921270764475E-16,0.0,-1.0));
#631=CARTESIAN_POINT('',(-2.1,0.0,0.0));
#632=DIRECTION('',(-1.0,0.0,-2.44921270764475E-16));
#633=DIRECTION('',(2.44921270764475E-16,0.0,-1.0));
#634=DIRECTION('',(-0.923076923076923,0.384615384615385,-2.73181417391146E-16));
#635=CARTESIAN_POINT('',(-0.9,0.0,9.86076131526265E-32));
#636=DIRECTION('',(1.0,0.0,0.0));
#637=DIRECTION('',(0.0,1.0,0.0));
#638=DIRECTION('',(0.923076923076923,0.384615384615385,1.78980928635578E-16));
#639=CARTESIAN_POINT('',(-2.1,0.0,0.0));
#640=DIRECTION('',(-1.0,0.0,-2.44921270764475E-16));
#641=DIRECTION('',(2.44921270764475E-16,0.0,-1.0));
#642=DIRECTION('',(-1.0,0.0,0.0));
#643=CARTESIAN_POINT('',(-0.9,0.0,0.0));
#644=DIRECTION('',(-1.0,-0.0,-0.0));
#645=DIRECTION('',(0.0,0.0,-1.0));
#646=DIRECTION('',(1.0,0.0,0.0));
#647=CARTESIAN_POINT('',(-9.9,0.0,0.0));
#648=DIRECTION('',(-1.0,0.0,0.0));
#649=DIRECTION('',(0.0,0.0,-1.0));
#650=DIRECTION('',(0.923076923076923,0.384615384615385,1.60140830884465E-16));
#651=CARTESIAN_POINT('',(-12.9,0.0,-4.93038065763132E-32));
#652=DIRECTION('',(-1.0,0.0,0.0));
#653=DIRECTION('',(0.0,1.0,0.0));
#654=CARTESIAN_POINT('',(-12.1,0.0,9.79685083057902E-17));
#655=DIRECTION('',(1.0,0.0,0.0));
#656=DIRECTION('',(0.0,1.0,0.0));
#657=CARTESIAN_POINT('',(-12.9,0.0,-4.93038065763132E-32));
#658=DIRECTION('',(-1.0,0.0,0.0));
#659=DIRECTION('',(0.0,1.0,0.0));
#660=DIRECTION('',(-0.923076923076923,0.384615384615385,-6.59403421288973E-17));
#661=CARTESIAN_POINT('',(-11.7,0.0,0.0));
#662=DIRECTION('',(1.0,0.0,1.22460635382238E-16));
#663=DIRECTION('',(1.22460635382238E-16,0.0,-1.0));
#664=DIRECTION('',(0.0,0.0,-1.0));
#665=DIRECTION('',(-0.0,-0.0,1.0));
#666=CARTESIAN_POINT('',(-12.1,0.0,9.79685083057902E-17));
#667=DIRECTION('',(1.0,0.0,0.0));
#668=DIRECTION('',(0.0,1.0,0.0));
#669=DIRECTION('',(0.0,0.0,-1.0));
#670=DIRECTION('',(0.0,0.0,-1.0));
#671=CARTESIAN_POINT('',(-11.7,0.0,0.0));
#672=DIRECTION('',(1.0,0.0,1.22460635382238E-16));
#673=DIRECTION('',(1.22460635382238E-16,0.0,-1.0));
#674=CARTESIAN_POINT('',(-12.9,0.0,-4.93038065763132E-32));
#675=DIRECTION('',(-1.0,0.0,0.0));
#676=DIRECTION('',(0.0,1.0,0.0));
#677=CARTESIAN_POINT('',(-12.9,0.0,-4.93038065763132E-32));
#678=DIRECTION('',(-1.0,0.0,0.0));
#679=DIRECTION('',(0.0,1.0,0.0));
#680=CARTESIAN_POINT('',(-9.9,0.0,0.0));
#681=DIRECTION('',(-1.0,0.0,0.0));
#682=DIRECTION('',(0.0,0.0,-1.0));
#683=CARTESIAN_POINT('',(-0.9,0.0,0.0));
#684=DIRECTION('',(-1.0,-0.0,-0.0));
#685=DIRECTION('',(0.0,0.0,-1.0));
#686=CARTESIAN_POINT('',(-2.1,0.0,0.0));
#687=DIRECTION('',(-1.0,0.0,-2.44921270764475E-16));
#688=DIRECTION('',(2.44921270764475E-16,0.0,-1.0));
#689=CARTESIAN_POINT('',(-0.9,0.0,9.86076131526265E-32));
#690=DIRECTION('',(1.0,0.0,0.0));
#691=DIRECTION('',(0.0,1.0,0.0));
#692=CARTESIAN_POINT('',(-1.5,0.0,0.0));
#693=DIRECTION('',(-1.22460635382238E-16,-1.0,0.0));
#694=DIRECTION('',(0.0,0.0,1.0));
#695=CARTESIAN_POINT('',(-1.5,0.0,0.0));
#696=DIRECTION('',(-1.22460635382238E-16,-1.0,0.0));
#697=DIRECTION('',(0.0,0.0,1.0));
ENDSEC;
END-ISO-10303-21;
