ISO-10303-21;
HEADER;
FILE_DESCRIPTION(('STEP AP214'),'1');
FILE_NAME(' ','  ',('TraceParts'),('TraceParts S.A.'),'XStep 1.0',' ',' ');
FILE_SCHEMA(('automotive_design'));
ENDSEC;
DATA;
#1=MECHANICAL_DESIGN_GEOMETRIC_PRESENTATION_REPRESENTATION(' ',(#10,#11,#12,#13,#14,#15,#16,#17,#18,#19,#20,#21,#22,#23,#24,#25,#26,#27,#28,#29,#30,#31,#32,#33,#34,#35,#36,#37,#38,#39,#40,#41,#42,#43,#44,#45,#46,#47,#48,#49,#50,#51,#52,#53,#54,#55,#56,#57),#6);
#2=PRODUCT_DEFINITION_CONTEXT('',#58,'design');
#3=APPLICATION_PROTOCOL_DEFINITION('INTERNATIONAL STANDARD','automotive_design',1994,#58);
#4=PRODUCT_CATEGORY_RELATIONSHIP('NONE','NONE',#59,#60);
#5=SHAPE_DEFINITION_REPRESENTATION(#61,#62);
#6= (GEOMETRIC_REPRESENTATION_CONTEXT(3)GLOBAL_UNCERTAINTY_ASSIGNED_CONTEXT((#65))GLOBAL_UNIT_ASSIGNED_CONTEXT((#67,#68,#69))REPRESENTATION_CONTEXT('NONE','WORKSPACE'));
#10=STYLED_ITEM('',(#71),#72);
#11=STYLED_ITEM('',(#73),#74);
#12=STYLED_ITEM('',(#75),#76);
#13=STYLED_ITEM('',(#77),#78);
#14=STYLED_ITEM('',(#79),#80);
#15=STYLED_ITEM('',(#81),#82);
#16=STYLED_ITEM('',(#83),#84);
#17=STYLED_ITEM('',(#85),#86);
#18=STYLED_ITEM('',(#87),#88);
#19=STYLED_ITEM('',(#89),#90);
#20=STYLED_ITEM('',(#91),#92);
#21=STYLED_ITEM('',(#93),#94);
#22=STYLED_ITEM('',(#95),#96);
#23=STYLED_ITEM('',(#97),#98);
#24=STYLED_ITEM('',(#99),#100);
#25=STYLED_ITEM('',(#101),#102);
#26=STYLED_ITEM('',(#103),#104);
#27=STYLED_ITEM('',(#105),#106);
#28=STYLED_ITEM('',(#107),#108);
#29=STYLED_ITEM('',(#109),#110);
#30=STYLED_ITEM('',(#111),#112);
#31=STYLED_ITEM('',(#113),#114);
#32=STYLED_ITEM('',(#115),#116);
#33=STYLED_ITEM('',(#117),#118);
#34=STYLED_ITEM('',(#119),#120);
#35=STYLED_ITEM('',(#121),#122);
#36=STYLED_ITEM('',(#123),#124);
#37=STYLED_ITEM('',(#125),#126);
#38=STYLED_ITEM('',(#127),#128);
#39=STYLED_ITEM('',(#129),#130);
#40=STYLED_ITEM('',(#131),#132);
#41=STYLED_ITEM('',(#133),#134);
#42=STYLED_ITEM('',(#135),#136);
#43=STYLED_ITEM('',(#137),#138);
#44=STYLED_ITEM('',(#139),#140);
#45=STYLED_ITEM('',(#141),#142);
#46=STYLED_ITEM('',(#143),#144);
#47=STYLED_ITEM('',(#145),#146);
#48=STYLED_ITEM('',(#147),#148);
#49=STYLED_ITEM('',(#149),#150);
#50=STYLED_ITEM('',(#151),#152);
#51=STYLED_ITEM('',(#153),#154);
#52=STYLED_ITEM('',(#155),#156);
#53=STYLED_ITEM('',(#157),#158);
#54=STYLED_ITEM('',(#159),#160);
#55=STYLED_ITEM('',(#161),#162);
#56=STYLED_ITEM('',(#163),#164);
#57=STYLED_ITEM('',(#165),#166);
#58=APPLICATION_CONTEXT(' ');
#59=PRODUCT_CATEGORY('part','NONE');
#60=PRODUCT_RELATED_PRODUCT_CATEGORY('detail',' ',(#167));
#61=PRODUCT_DEFINITION_SHAPE('NONE','NONE',#168);
#62=ADVANCED_BREP_SHAPE_REPRESENTATION('1',(#120,#169),#6);
#65=UNCERTAINTY_MEASURE_WITH_UNIT(LENGTH_MEASURE(1.0E-006),#67,'','');
#67= (CONVERSION_BASED_UNIT('MILLIMETRE',#172)LENGTH_UNIT()NAMED_UNIT(#175));
#68= (NAMED_UNIT(#177)PLANE_ANGLE_UNIT()SI_UNIT($,.RADIAN.));
#69= (NAMED_UNIT(#177)SOLID_ANGLE_UNIT()SI_UNIT($,.STERADIAN.));
#71=PRESENTATION_STYLE_ASSIGNMENT((#183));
#72=EDGE_CURVE('',#108,#166,#184,.T.);
#73=PRESENTATION_STYLE_ASSIGNMENT((#185));
#74=ADVANCED_FACE('',(#186),#187,.F.);
#75=PRESENTATION_STYLE_ASSIGNMENT((#188));
#76=EDGE_CURVE('',#116,#114,#189,.T.);
#77=PRESENTATION_STYLE_ASSIGNMENT((#190));
#78=ADVANCED_FACE('',(#191),#192,.F.);
#79=PRESENTATION_STYLE_ASSIGNMENT((#193));
#80=ADVANCED_FACE('',(#194),#195,.F.);
#81=PRESENTATION_STYLE_ASSIGNMENT((#196));
#82=EDGE_CURVE('',#166,#162,#197,.T.);
#83=PRESENTATION_STYLE_ASSIGNMENT((#198));
#84=EDGE_CURVE('',#148,#100,#199,.T.);
#85=PRESENTATION_STYLE_ASSIGNMENT((#200));
#86=EDGE_CURVE('',#134,#140,#201,.T.);
#87=PRESENTATION_STYLE_ASSIGNMENT((#202));
#88=EDGE_CURVE('',#114,#116,#203,.T.);
#89=PRESENTATION_STYLE_ASSIGNMENT((#204));
#90=VERTEX_POINT('',#205);
#91=PRESENTATION_STYLE_ASSIGNMENT((#206));
#92=EDGE_CURVE('',#148,#114,#207,.T.);
#93=PRESENTATION_STYLE_ASSIGNMENT((#208));
#94=EDGE_CURVE('',#118,#138,#209,.T.);
#95=PRESENTATION_STYLE_ASSIGNMENT((#210));
#96=EDGE_CURVE('',#162,#166,#211,.T.);
#97=PRESENTATION_STYLE_ASSIGNMENT((#212));
#98=VERTEX_POINT('',#213);
#99=PRESENTATION_STYLE_ASSIGNMENT((#214));
#100=VERTEX_POINT('',#215);
#101=PRESENTATION_STYLE_ASSIGNMENT((#216));
#102=ADVANCED_FACE('',(#217),#218,.T.);
#103=PRESENTATION_STYLE_ASSIGNMENT((#219));
#104=EDGE_CURVE('',#108,#98,#220,.T.);
#105=PRESENTATION_STYLE_ASSIGNMENT((#221));
#106=ADVANCED_FACE('',(#222),#223,.F.);
#107=PRESENTATION_STYLE_ASSIGNMENT((#224));
#108=VERTEX_POINT('',#225);
#109=PRESENTATION_STYLE_ASSIGNMENT((#226));
#110=EDGE_CURVE('',#140,#134,#227,.T.);
#111=PRESENTATION_STYLE_ASSIGNMENT((#228));
#112=EDGE_CURVE('',#90,#142,#229,.T.);
#113=PRESENTATION_STYLE_ASSIGNMENT((#230));
#114=VERTEX_POINT('',#231);
#115=PRESENTATION_STYLE_ASSIGNMENT((#232));
#116=VERTEX_POINT('',#233);
#117=PRESENTATION_STYLE_ASSIGNMENT((#234));
#118=VERTEX_POINT('',#235);
#119=PRESENTATION_STYLE_ASSIGNMENT((#236));
#120=MANIFOLD_SOLID_BREP('1',#237);
#121=PRESENTATION_STYLE_ASSIGNMENT((#238));
#122=ADVANCED_FACE('',(#239),#240,.T.);
#123=PRESENTATION_STYLE_ASSIGNMENT((#241));
#124=EDGE_CURVE('',#138,#118,#242,.T.);
#125=PRESENTATION_STYLE_ASSIGNMENT((#243));
#126=EDGE_CURVE('',#98,#108,#244,.T.);
#127=PRESENTATION_STYLE_ASSIGNMENT((#245));
#128=EDGE_CURVE('',#142,#90,#246,.T.);
#129=PRESENTATION_STYLE_ASSIGNMENT((#247));
#130=EDGE_CURVE('',#100,#148,#248,.T.);
#131=PRESENTATION_STYLE_ASSIGNMENT((#249));
#132=EDGE_CURVE('',#162,#98,#250,.T.);
#133=PRESENTATION_STYLE_ASSIGNMENT((#251));
#134=VERTEX_POINT('',#252);
#135=PRESENTATION_STYLE_ASSIGNMENT((#253));
#136=EDGE_CURVE('',#134,#142,#254,.T.);
#137=PRESENTATION_STYLE_ASSIGNMENT((#255));
#138=VERTEX_POINT('',#256);
#139=PRESENTATION_STYLE_ASSIGNMENT((#257));
#140=VERTEX_POINT('',#258);
#141=PRESENTATION_STYLE_ASSIGNMENT((#259));
#142=VERTEX_POINT('',#260);
#143=PRESENTATION_STYLE_ASSIGNMENT((#261));
#144=ADVANCED_FACE('',(#262,#263),#264,.T.);
#145=PRESENTATION_STYLE_ASSIGNMENT((#265));
#146=ADVANCED_FACE('',(#266,#267),#268,.T.);
#147=PRESENTATION_STYLE_ASSIGNMENT((#269));
#148=VERTEX_POINT('',#270);
#149=PRESENTATION_STYLE_ASSIGNMENT((#271));
#150=ADVANCED_FACE('',(#272,#273),#274,.T.);
#151=PRESENTATION_STYLE_ASSIGNMENT((#275));
#152=ADVANCED_FACE('',(#276),#277,.T.);
#153=PRESENTATION_STYLE_ASSIGNMENT((#278));
#154=EDGE_CURVE('',#138,#162,#279,.T.);
#155=PRESENTATION_STYLE_ASSIGNMENT((#280));
#156=EDGE_CURVE('',#116,#100,#281,.T.);
#157=PRESENTATION_STYLE_ASSIGNMENT((#282));
#158=EDGE_CURVE('',#90,#140,#283,.T.);
#159=PRESENTATION_STYLE_ASSIGNMENT((#284));
#160=EDGE_CURVE('',#166,#118,#285,.T.);
#161=PRESENTATION_STYLE_ASSIGNMENT((#286));
#162=VERTEX_POINT('',#287);
#163=PRESENTATION_STYLE_ASSIGNMENT((#288));
#164=ADVANCED_FACE('',(#289),#290,.T.);
#165=PRESENTATION_STYLE_ASSIGNMENT((#291));
#166=VERTEX_POINT('',#292);
#167=PRODUCT('1','1','PART-1-DESC',(#293));
#168=PRODUCT_DEFINITION('NONE','NONE',#294,#2);
#169=AXIS2_PLACEMENT_3D('',#295,#296,#297);
#172=LENGTH_MEASURE_WITH_UNIT(LENGTH_MEASURE(1.0),#298);
#175=DIMENSIONAL_EXPONENTS(1.0,0.0,0.0,0.0,0.0,0.0,0.0);
#177=DIMENSIONAL_EXPONENTS(0.0,0.0,0.0,0.0,0.0,0.0,0.0);
#183=CURVE_STYLE('',#299,POSITIVE_LENGTH_MEASURE(1.0E-006),#300);
#184=LINE('',#301,#302);
#185=SURFACE_STYLE_USAGE(.BOTH.,#303);
#186=FACE_OUTER_BOUND('',#304,.T.);
#187=CYLINDRICAL_SURFACE('',#305,13.0);
#188=CURVE_STYLE('',#306,POSITIVE_LENGTH_MEASURE(1.0E-006),#307);
#189=CIRCLE('',#308,13.0);
#190=SURFACE_STYLE_USAGE(.BOTH.,#309);
#191=FACE_OUTER_BOUND('',#310,.T.);
#192=CYLINDRICAL_SURFACE('',#311,8.0);
#193=SURFACE_STYLE_USAGE(.BOTH.,#312);
#194=FACE_OUTER_BOUND('',#313,.T.);
#195=CYLINDRICAL_SURFACE('',#314,13.0);
#196=CURVE_STYLE('',#315,POSITIVE_LENGTH_MEASURE(1.0E-006),#316);
#197=CIRCLE('',#317,25.0);
#198=CURVE_STYLE('',#318,POSITIVE_LENGTH_MEASURE(1.0E-006),#319);
#199=CIRCLE('',#320,13.0);
#200=CURVE_STYLE('',#321,POSITIVE_LENGTH_MEASURE(1.0E-006),#322);
#201=CIRCLE('',#323,8.0);
#202=CURVE_STYLE('',#324,POSITIVE_LENGTH_MEASURE(1.0E-006),#325);
#203=CIRCLE('',#326,13.0);
#204=POINT_STYLE(' ',#327,POSITIVE_LENGTH_MEASURE(1.0E-006),#328);
#205=CARTESIAN_POINT('',(-7.99999999999997,6.70374796499238E-015,0.0));
#206=CURVE_STYLE('',#329,POSITIVE_LENGTH_MEASURE(1.0E-006),#330);
#207=LINE('',#331,#332);
#208=CURVE_STYLE('',#333,POSITIVE_LENGTH_MEASURE(1.0E-006),#334);
#209=CIRCLE('',#335,25.0);
#210=CURVE_STYLE('',#336,POSITIVE_LENGTH_MEASURE(1.0E-006),#337);
#211=CIRCLE('',#338,25.0);
#212=POINT_STYLE(' ',#339,POSITIVE_LENGTH_MEASURE(1.0E-006),#340);
#213=CARTESIAN_POINT('',(-23.0,5.23159943788707E-015,60.0));
#214=POINT_STYLE(' ',#341,POSITIVE_LENGTH_MEASURE(1.0E-006),#342);
#215=CARTESIAN_POINT('',(13.0,6.87659066920402E-015,24.0));
#216=SURFACE_STYLE_USAGE(.BOTH.,#343);
#217=FACE_OUTER_BOUND('',#344,.T.);
#218=CONICAL_SURFACE('',#345,24.0,0.785398163397448);
#219=CURVE_STYLE('',#346,POSITIVE_LENGTH_MEASURE(1.0E-006),#347);
#220=CIRCLE('',#348,23.0);
#221=SURFACE_STYLE_USAGE(.BOTH.,#349);
#222=FACE_OUTER_BOUND('',#350,.T.);
#223=CYLINDRICAL_SURFACE('',#351,8.0);
#224=POINT_STYLE(' ',#352,POSITIVE_LENGTH_MEASURE(1.0E-006),#353);
#225=CARTESIAN_POINT('',(23.0,1.03054884599067E-014,60.0));
#226=CURVE_STYLE('',#354,POSITIVE_LENGTH_MEASURE(1.0E-006),#355);
#227=CIRCLE('',#356,8.0);
#228=CURVE_STYLE('',#357,POSITIVE_LENGTH_MEASURE(1.0E-006),#358);
#229=CIRCLE('',#359,8.0);
#230=POINT_STYLE(' ',#360,POSITIVE_LENGTH_MEASURE(1.0E-006),#361);
#231=CARTESIAN_POINT('',(-13.0,6.21303178929061E-015,60.0));
#232=POINT_STYLE(' ',#362,POSITIVE_LENGTH_MEASURE(1.0E-006),#363);
#233=CARTESIAN_POINT('',(13.0,9.08088210608429E-015,60.0));
#234=POINT_STYLE(' ',#364,POSITIVE_LENGTH_MEASURE(1.0E-006),#365);
#235=CARTESIAN_POINT('',(25.0,6.87659066920402E-015,-2.8421709430404E-014));
#236=SURFACE_STYLE_USAGE(.BOTH.,#366);
#237=CLOSED_SHELL('',(#122,#102,#74,#78,#144,#106,#146,#80,#150,#164,#152));
#238=SURFACE_STYLE_USAGE(.BOTH.,#367);
#239=FACE_OUTER_BOUND('',#368,.T.);
#240=CYLINDRICAL_SURFACE('',#369,25.0);
#241=CURVE_STYLE('',#370,POSITIVE_LENGTH_MEASURE(1.0E-006),#371);
#242=CIRCLE('',#372,25.0);
#243=CURVE_STYLE('',#373,POSITIVE_LENGTH_MEASURE(1.0E-006),#374);
#244=CIRCLE('',#375,23.0);
#245=CURVE_STYLE('',#376,POSITIVE_LENGTH_MEASURE(1.0E-006),#377);
#246=CIRCLE('',#378,8.0);
#247=CURVE_STYLE('',#379,POSITIVE_LENGTH_MEASURE(1.0E-006),#380);
#248=CIRCLE('',#381,13.0);
#249=CURVE_STYLE('',#382,POSITIVE_LENGTH_MEASURE(1.0E-006),#383);
#250=LINE('',#384,#385);
#251=POINT_STYLE(' ',#386,POSITIVE_LENGTH_MEASURE(1.0E-006),#387);
#252=CARTESIAN_POINT('',(8.00000000000003,6.26428749229283E-015,24.0));
#253=CURVE_STYLE('',#388,POSITIVE_LENGTH_MEASURE(1.0E-006),#389);
#254=LINE('',#390,#391);
#255=POINT_STYLE(' ',#392,POSITIVE_LENGTH_MEASURE(1.0E-006),#393);
#256=CARTESIAN_POINT('',(-25.0,5.03531296760637E-015,-2.8421709430404E-014));
#257=POINT_STYLE(' ',#394,POSITIVE_LENGTH_MEASURE(1.0E-006),#395);
#258=CARTESIAN_POINT('',(-7.99999999999997,6.70374796499238E-015,24.0));
#259=POINT_STYLE(' ',#396,POSITIVE_LENGTH_MEASURE(1.0E-006),#397);
#260=CARTESIAN_POINT('',(8.00000000000003,4.79475986770598E-015,0.0));
#261=SURFACE_STYLE_USAGE(.BOTH.,#398);
#262=FACE_BOUND('',#399,.T.);
#263=FACE_OUTER_BOUND('',#400,.T.);
#264=PLANE('',#401);
#265=SURFACE_STYLE_USAGE(.BOTH.,#402);
#266=FACE_OUTER_BOUND('',#403,.T.);
#267=FACE_BOUND('',#404,.T.);
#268=PLANE('',#405);
#269=POINT_STYLE(' ',#406,POSITIVE_LENGTH_MEASURE(1.0E-006),#407);
#270=CARTESIAN_POINT('',(-13.0,6.21303178929061E-015,24.0));
#271=SURFACE_STYLE_USAGE(.BOTH.,#408);
#272=FACE_OUTER_BOUND('',#409,.T.);
#273=FACE_BOUND('',#410,.T.);
#274=PLANE('',#411);
#275=SURFACE_STYLE_USAGE(.BOTH.,#412);
#276=FACE_OUTER_BOUND('',#413,.T.);
#277=CYLINDRICAL_SURFACE('',#414,25.0);
#278=CURVE_STYLE('',#415,POSITIVE_LENGTH_MEASURE(1.0E-006),#416);
#279=LINE('',#417,#418);
#280=CURVE_STYLE('',#419,POSITIVE_LENGTH_MEASURE(1.0E-006),#420);
#281=LINE('',#421,#422);
#282=CURVE_STYLE('',#423,POSITIVE_LENGTH_MEASURE(1.0E-006),#424);
#283=LINE('',#425,#426);
#284=CURVE_STYLE('',#427,POSITIVE_LENGTH_MEASURE(1.0E-006),#428);
#285=LINE('',#429,#430);
#286=POINT_STYLE(' ',#431,POSITIVE_LENGTH_MEASURE(1.0E-006),#432);
#287=CARTESIAN_POINT('',(-25.0,5.03531296760637E-015,58.0));
#288=SURFACE_STYLE_USAGE(.BOTH.,#433);
#289=FACE_OUTER_BOUND('',#434,.T.);
#290=CONICAL_SURFACE('',#435,24.0,0.785398163397448);
#291=POINT_STYLE(' ',#436,POSITIVE_LENGTH_MEASURE(1.0E-006),#437);
#292=CARTESIAN_POINT('',(25.0,1.04279490952889E-014,58.0));
#293=PRODUCT_CONTEXT('',#58,'mechanical');
#294=PRODUCT_DEFINITION_FORMATION_WITH_SPECIFIED_SOURCE(' ','NONE',#167,.NOT_KNOWN.);
#295=CARTESIAN_POINT('',(0.0,0.0,0.0));
#296=DIRECTION('',(0.0,0.0,1.0));
#297=DIRECTION('',(1.0,0.0,0.0));
#298= (NAMED_UNIT(#175)LENGTH_UNIT()SI_UNIT(.MILLI.,.METRE.));
#299=DRAUGHTING_PRE_DEFINED_CURVE_FONT('continuous');
#300=COLOUR_RGB('',0.509803950786591,0.509803950786591,0.588235318660736);
#301=CARTESIAN_POINT('',(24.0,9.84433148948369E-015,59.0));
#302=VECTOR('',#439,1.0);
#303=SURFACE_SIDE_STYLE('',(#440));
#304=EDGE_LOOP('',(#441,#442,#443,#444));
#305=AXIS2_PLACEMENT_3D('',#445,#446,#447);
#306=DRAUGHTING_PRE_DEFINED_CURVE_FONT('continuous');
#307=COLOUR_RGB('',0.509803950786591,0.509803950786591,0.588235318660736);
#308=AXIS2_PLACEMENT_3D('',#448,#449,#450);
#309=SURFACE_SIDE_STYLE('',(#451));
#310=EDGE_LOOP('',(#452,#453,#454,#455));
#311=AXIS2_PLACEMENT_3D('',#456,#457,#458);
#312=SURFACE_SIDE_STYLE('',(#459));
#313=EDGE_LOOP('',(#460,#461,#462,#463));
#314=AXIS2_PLACEMENT_3D('',#464,#465,#466);
#315=DRAUGHTING_PRE_DEFINED_CURVE_FONT('continuous');
#316=COLOUR_RGB('',0.509803950786591,0.509803950786591,0.588235318660736);
#317=AXIS2_PLACEMENT_3D('',#467,#468,#469);
#318=DRAUGHTING_PRE_DEFINED_CURVE_FONT('continuous');
#319=COLOUR_RGB('',0.509803950786591,0.509803950786591,0.588235318660736);
#320=AXIS2_PLACEMENT_3D('',#470,#471,#472);
#321=DRAUGHTING_PRE_DEFINED_CURVE_FONT('continuous');
#322=COLOUR_RGB('',0.509803950786591,0.509803950786591,0.588235318660736);
#323=AXIS2_PLACEMENT_3D('',#473,#474,#475);
#324=DRAUGHTING_PRE_DEFINED_CURVE_FONT('continuous');
#325=COLOUR_RGB('',0.509803950786591,0.509803950786591,0.588235318660736);
#326=AXIS2_PLACEMENT_3D('',#476,#477,#478);
#327=PRE_DEFINED_MARKER('');
#328=COLOUR_RGB('',0.509803950786591,0.509803950786591,0.588235318660736);
#329=DRAUGHTING_PRE_DEFINED_CURVE_FONT('continuous');
#330=COLOUR_RGB('',0.509803950786591,0.509803950786591,0.588235318660736);
#331=CARTESIAN_POINT('',(-13.0,6.21303178929061E-015,42.0));
#332=VECTOR('',#479,1.0);
#333=DRAUGHTING_PRE_DEFINED_CURVE_FONT('continuous');
#334=COLOUR_RGB('',0.509803950786591,0.509803950786591,0.588235318660736);
#335=AXIS2_PLACEMENT_3D('',#480,#481,#482);
#336=DRAUGHTING_PRE_DEFINED_CURVE_FONT('continuous');
#337=COLOUR_RGB('',0.509803950786591,0.509803950786591,0.588235318660736);
#338=AXIS2_PLACEMENT_3D('',#483,#484,#485);
#339=PRE_DEFINED_MARKER('');
#340=COLOUR_RGB('',0.509803950786591,0.509803950786591,0.588235318660736);
#341=PRE_DEFINED_MARKER('');
#342=COLOUR_RGB('',0.509803950786591,0.509803950786591,0.588235318660736);
#343=SURFACE_SIDE_STYLE('',(#486));
#344=EDGE_LOOP('',(#487,#488,#489,#490));
#345=AXIS2_PLACEMENT_3D('',#491,#492,#493);
#346=DRAUGHTING_PRE_DEFINED_CURVE_FONT('continuous');
#347=COLOUR_RGB('',0.509803950786591,0.509803950786591,0.588235318660736);
#348=AXIS2_PLACEMENT_3D('',#494,#495,#496);
#349=SURFACE_SIDE_STYLE('',(#497));
#350=EDGE_LOOP('',(#498,#499,#500,#501));
#351=AXIS2_PLACEMENT_3D('',#502,#503,#504);
#352=PRE_DEFINED_MARKER('');
#353=COLOUR_RGB('',0.509803950786591,0.509803950786591,0.588235318660736);
#354=DRAUGHTING_PRE_DEFINED_CURVE_FONT('continuous');
#355=COLOUR_RGB('',0.509803950786591,0.509803950786591,0.588235318660736);
#356=AXIS2_PLACEMENT_3D('',#505,#506,#507);
#357=DRAUGHTING_PRE_DEFINED_CURVE_FONT('continuous');
#358=COLOUR_RGB('',0.509803950786591,0.509803950786591,0.588235318660736);
#359=AXIS2_PLACEMENT_3D('',#508,#509,#510);
#360=PRE_DEFINED_MARKER('');
#361=COLOUR_RGB('',0.509803950786591,0.509803950786591,0.588235318660736);
#362=PRE_DEFINED_MARKER('');
#363=COLOUR_RGB('',0.509803950786591,0.509803950786591,0.588235318660736);
#364=PRE_DEFINED_MARKER('');
#365=COLOUR_RGB('',0.509803950786591,0.509803950786591,0.588235318660736);
#366=SURFACE_SIDE_STYLE('',(#511));
#367=SURFACE_SIDE_STYLE('',(#512));
#368=EDGE_LOOP('',(#513,#514,#515,#516));
#369=AXIS2_PLACEMENT_3D('',#517,#518,#519);
#370=DRAUGHTING_PRE_DEFINED_CURVE_FONT('continuous');
#371=COLOUR_RGB('',0.509803950786591,0.509803950786591,0.588235318660736);
#372=AXIS2_PLACEMENT_3D('',#520,#521,#522);
#373=DRAUGHTING_PRE_DEFINED_CURVE_FONT('continuous');
#374=COLOUR_RGB('',0.509803950786591,0.509803950786591,0.588235318660736);
#375=AXIS2_PLACEMENT_3D('',#523,#524,#525);
#376=DRAUGHTING_PRE_DEFINED_CURVE_FONT('continuous');
#377=COLOUR_RGB('',0.509803950786591,0.509803950786591,0.588235318660736);
#378=AXIS2_PLACEMENT_3D('',#526,#527,#528);
#379=DRAUGHTING_PRE_DEFINED_CURVE_FONT('continuous');
#380=COLOUR_RGB('',0.509803950786591,0.509803950786591,0.588235318660736);
#381=AXIS2_PLACEMENT_3D('',#529,#530,#531);
#382=DRAUGHTING_PRE_DEFINED_CURVE_FONT('continuous');
#383=COLOUR_RGB('',0.509803950786591,0.509803950786591,0.588235318660736);
#384=CARTESIAN_POINT('',(-24.0,5.13345620274672E-015,59.0));
#385=VECTOR('',#532,1.0);
#386=PRE_DEFINED_MARKER('');
#387=COLOUR_RGB('',0.509803950786591,0.509803950786591,0.588235318660736);
#388=DRAUGHTING_PRE_DEFINED_CURVE_FONT('continuous');
#389=COLOUR_RGB('',0.509803950786591,0.509803950786591,0.588235318660736);
#390=CARTESIAN_POINT('',(8.00000000000003,8.27403972723803E-015,12.0));
#391=VECTOR('',#533,1.0);
#392=PRE_DEFINED_MARKER('');
#393=COLOUR_RGB('',0.509803950786591,0.509803950786591,0.588235318660736);
#394=PRE_DEFINED_MARKER('');
#395=COLOUR_RGB('',0.509803950786591,0.509803950786591,0.588235318660736);
#396=PRE_DEFINED_MARKER('');
#397=COLOUR_RGB('',0.509803950786591,0.509803950786591,0.588235318660736);
#398=SURFACE_SIDE_STYLE('',(#534));
#399=EDGE_LOOP('',(#535,#536));
#400=EDGE_LOOP('',(#537,#538));
#401=AXIS2_PLACEMENT_3D('',#539,#540,#541);
#402=SURFACE_SIDE_STYLE('',(#542));
#403=EDGE_LOOP('',(#543,#544));
#404=EDGE_LOOP('',(#545,#546));
#405=AXIS2_PLACEMENT_3D('',#547,#548,#549);
#406=PRE_DEFINED_MARKER('');
#407=COLOUR_RGB('',0.509803950786591,0.509803950786591,0.588235318660736);
#408=SURFACE_SIDE_STYLE('',(#550));
#409=EDGE_LOOP('',(#551,#552));
#410=EDGE_LOOP('',(#553,#554));
#411=AXIS2_PLACEMENT_3D('',#555,#556,#557);
#412=SURFACE_SIDE_STYLE('',(#558));
#413=EDGE_LOOP('',(#559,#560,#561,#562));
#414=AXIS2_PLACEMENT_3D('',#563,#564,#565);
#415=DRAUGHTING_PRE_DEFINED_CURVE_FONT('continuous');
#416=COLOUR_RGB('',0.509803950786591,0.509803950786591,0.588235318660736);
#417=CARTESIAN_POINT('',(-25.0,5.03531296760637E-015,29.0));
#418=VECTOR('',#566,1.0);
#419=DRAUGHTING_PRE_DEFINED_CURVE_FONT('continuous');
#420=COLOUR_RGB('',0.509803950786591,0.509803950786591,0.588235318660736);
#421=CARTESIAN_POINT('',(13.0,8.7647559029398E-015,42.0));
#422=VECTOR('',#567,1.0);
#423=DRAUGHTING_PRE_DEFINED_CURVE_FONT('continuous');
#424=COLOUR_RGB('',0.509803950786591,0.509803950786591,0.588235318660736);
#425=CARTESIAN_POINT('',(-7.99999999999997,6.70374796499238E-015,12.0));
#426=VECTOR('',#568,1.0);
#427=DRAUGHTING_PRE_DEFINED_CURVE_FONT('continuous');
#428=COLOUR_RGB('',0.509803950786591,0.509803950786591,0.588235318660736);
#429=CARTESIAN_POINT('',(25.0,9.94247472462404E-015,29.0));
#430=VECTOR('',#569,1.0);
#431=PRE_DEFINED_MARKER('');
#432=COLOUR_RGB('',0.509803950786591,0.509803950786591,0.588235318660736);
#433=SURFACE_SIDE_STYLE('',(#570));
#434=EDGE_LOOP('',(#571,#572,#573,#574));
#435=AXIS2_PLACEMENT_3D('',#575,#576,#577);
#436=PRE_DEFINED_MARKER('');
#437=COLOUR_RGB('',0.509803950786591,0.509803950786591,0.588235318660736);
#439=DIRECTION('',(0.707106781186548,6.93977470953299E-017,-0.707106781186548));
#440=SURFACE_STYLE_FILL_AREA(#578);
#441=ORIENTED_EDGE('',*,*,#156,.F.);
#442=ORIENTED_EDGE('',*,*,#88,.F.);
#443=ORIENTED_EDGE('',*,*,#92,.F.);
#444=ORIENTED_EDGE('',*,*,#84,.T.);
#445=CARTESIAN_POINT('',(2.8421709430404E-014,7.4888938461152E-015,42.0));
#446=DIRECTION('',(-0.0,-0.0,1.0));
#447=DIRECTION('',(1.0,-2.43174002418842E-017,0.0));
#448=CARTESIAN_POINT('',(2.8421709430404E-014,7.4888938461152E-015,60.0));
#449=DIRECTION('',(0.0,0.0,-1.0));
#450=DIRECTION('',(1.0,-2.43174002418842E-017,0.0));
#451=SURFACE_STYLE_FILL_AREA(#579);
#452=ORIENTED_EDGE('',*,*,#136,.F.);
#453=ORIENTED_EDGE('',*,*,#110,.F.);
#454=ORIENTED_EDGE('',*,*,#158,.F.);
#455=ORIENTED_EDGE('',*,*,#112,.T.);
#456=CARTESIAN_POINT('',(2.8421709430404E-014,7.4888938461152E-015,12.0));
#457=DIRECTION('',(-0.0,-0.0,1.0));
#458=DIRECTION('',(1.0,-2.43174002418842E-017,0.0));
#459=SURFACE_STYLE_FILL_AREA(#580);
#460=ORIENTED_EDGE('',*,*,#156,.T.);
#461=ORIENTED_EDGE('',*,*,#130,.T.);
#462=ORIENTED_EDGE('',*,*,#92,.T.);
#463=ORIENTED_EDGE('',*,*,#76,.F.);
#464=CARTESIAN_POINT('',(2.8421709430404E-014,7.4888938461152E-015,42.0));
#465=DIRECTION('',(-0.0,-0.0,1.0));
#466=DIRECTION('',(1.0,-2.43174002418842E-017,0.0));
#467=CARTESIAN_POINT('',(2.8421709430404E-014,7.4888938461152E-015,58.0));
#468=DIRECTION('',(0.0,0.0,-1.0));
#469=DIRECTION('',(1.0,-2.43174002418842E-017,0.0));
#470=CARTESIAN_POINT('',(2.8421709430404E-014,7.4888938461152E-015,24.0));
#471=DIRECTION('',(0.0,0.0,-1.0));
#472=DIRECTION('',(1.0,-2.43174002418842E-017,0.0));
#473=CARTESIAN_POINT('',(2.8421709430404E-014,7.4888938461152E-015,24.0));
#474=DIRECTION('',(0.0,0.0,-1.0));
#475=DIRECTION('',(1.0,-2.43174002418842E-017,0.0));
#476=CARTESIAN_POINT('',(2.8421709430404E-014,7.4888938461152E-015,60.0));
#477=DIRECTION('',(0.0,0.0,-1.0));
#478=DIRECTION('',(1.0,-2.43174002418842E-017,0.0));
#479=DIRECTION('',(-0.0,-0.0,1.0));
#480=CARTESIAN_POINT('',(2.8421709430404E-014,7.4888938461152E-015,-2.8421709430404E-014));
#481=DIRECTION('',(0.0,0.0,-1.0));
#482=DIRECTION('',(1.0,-2.43174002418842E-017,0.0));
#483=CARTESIAN_POINT('',(2.8421709430404E-014,7.4888938461152E-015,58.0));
#484=DIRECTION('',(0.0,0.0,-1.0));
#485=DIRECTION('',(1.0,-2.43174002418842E-017,0.0));
#486=SURFACE_STYLE_FILL_AREA(#581);
#487=ORIENTED_EDGE('',*,*,#72,.F.);
#488=ORIENTED_EDGE('',*,*,#104,.T.);
#489=ORIENTED_EDGE('',*,*,#132,.F.);
#490=ORIENTED_EDGE('',*,*,#82,.F.);
#491=CARTESIAN_POINT('',(2.8421709430404E-014,7.4888938461152E-015,59.0));
#492=DIRECTION('',(0.0,-0.0,-1.0));
#493=DIRECTION('',(1.0,-2.43174002418842E-017,0.0));
#494=CARTESIAN_POINT('',(2.8421709430404E-014,7.4888938461152E-015,60.0));
#495=DIRECTION('',(0.0,0.0,-1.0));
#496=DIRECTION('',(1.0,-2.43174002418842E-017,0.0));
#497=SURFACE_STYLE_FILL_AREA(#582);
#498=ORIENTED_EDGE('',*,*,#136,.T.);
#499=ORIENTED_EDGE('',*,*,#128,.T.);
#500=ORIENTED_EDGE('',*,*,#158,.T.);
#501=ORIENTED_EDGE('',*,*,#86,.F.);
#502=CARTESIAN_POINT('',(2.8421709430404E-014,7.4888938461152E-015,12.0));
#503=DIRECTION('',(-0.0,-0.0,1.0));
#504=DIRECTION('',(1.0,-2.43174002418842E-017,0.0));
#505=CARTESIAN_POINT('',(2.8421709430404E-014,7.4888938461152E-015,24.0));
#506=DIRECTION('',(0.0,0.0,-1.0));
#507=DIRECTION('',(1.0,-2.43174002418842E-017,0.0));
#508=CARTESIAN_POINT('',(2.8421709430404E-014,7.4888938461152E-015,0.0));
#509=DIRECTION('',(0.0,0.0,-1.0));
#510=DIRECTION('',(1.0,-2.43174002418842E-017,0.0));
#511=SURFACE_STYLE_FILL_AREA(#583);
#512=SURFACE_STYLE_FILL_AREA(#584);
#513=ORIENTED_EDGE('',*,*,#160,.F.);
#514=ORIENTED_EDGE('',*,*,#82,.T.);
#515=ORIENTED_EDGE('',*,*,#154,.F.);
#516=ORIENTED_EDGE('',*,*,#94,.F.);
#517=CARTESIAN_POINT('',(2.8421709430404E-014,7.4888938461152E-015,29.0));
#518=DIRECTION('',(-0.0,-0.0,1.0));
#519=DIRECTION('',(1.0,-2.43174002418842E-017,0.0));
#520=CARTESIAN_POINT('',(2.8421709430404E-014,7.4888938461152E-015,-2.8421709430404E-014));
#521=DIRECTION('',(0.0,0.0,-1.0));
#522=DIRECTION('',(1.0,-2.43174002418842E-017,0.0));
#523=CARTESIAN_POINT('',(2.8421709430404E-014,7.4888938461152E-015,60.0));
#524=DIRECTION('',(0.0,0.0,-1.0));
#525=DIRECTION('',(1.0,-2.43174002418842E-017,0.0));
#526=CARTESIAN_POINT('',(2.8421709430404E-014,7.4888938461152E-015,0.0));
#527=DIRECTION('',(0.0,0.0,-1.0));
#528=DIRECTION('',(1.0,-2.43174002418842E-017,0.0));
#529=CARTESIAN_POINT('',(2.8421709430404E-014,7.4888938461152E-015,24.0));
#530=DIRECTION('',(0.0,0.0,-1.0));
#531=DIRECTION('',(1.0,-2.43174002418842E-017,0.0));
#532=DIRECTION('',(0.707106781186548,6.93977470953299E-017,0.707106781186548));
#533=DIRECTION('',(-0.0,-0.0,-1.0));
#534=SURFACE_STYLE_FILL_AREA(#585);
#535=ORIENTED_EDGE('',*,*,#128,.F.);
#536=ORIENTED_EDGE('',*,*,#112,.F.);
#537=ORIENTED_EDGE('',*,*,#94,.T.);
#538=ORIENTED_EDGE('',*,*,#124,.T.);
#539=CARTESIAN_POINT('',(16.5,5.835675268455E-015,-1.4210854715202E-014));
#540=DIRECTION('',(0.0,0.0,-1.0));
#541=DIRECTION('',(1.0,1.22460635382238E-016,0.0));
#542=SURFACE_STYLE_FILL_AREA(#586);
#543=ORIENTED_EDGE('',*,*,#130,.F.);
#544=ORIENTED_EDGE('',*,*,#84,.F.);
#545=ORIENTED_EDGE('',*,*,#86,.T.);
#546=ORIENTED_EDGE('',*,*,#110,.T.);
#547=CARTESIAN_POINT('',(10.5,6.57043908074842E-015,24.0));
#548=DIRECTION('',(0.0,0.0,1.0));
#549=DIRECTION('',(-1.0,-1.22460635382238E-016,0.0));
#550=SURFACE_STYLE_FILL_AREA(#587);
#551=ORIENTED_EDGE('',*,*,#104,.F.);
#552=ORIENTED_EDGE('',*,*,#126,.F.);
#553=ORIENTED_EDGE('',*,*,#76,.T.);
#554=ORIENTED_EDGE('',*,*,#88,.T.);
#555=CARTESIAN_POINT('',(18.0,9.69318528299548E-015,60.0));
#556=DIRECTION('',(0.0,0.0,1.0));
#557=DIRECTION('',(-1.0,-1.22460635382238E-016,0.0));
#558=SURFACE_STYLE_FILL_AREA(#588);
#559=ORIENTED_EDGE('',*,*,#160,.T.);
#560=ORIENTED_EDGE('',*,*,#124,.F.);
#561=ORIENTED_EDGE('',*,*,#154,.T.);
#562=ORIENTED_EDGE('',*,*,#96,.T.);
#563=CARTESIAN_POINT('',(2.8421709430404E-014,7.4888938461152E-015,29.0));
#564=DIRECTION('',(-0.0,-0.0,1.0));
#565=DIRECTION('',(1.0,-2.43174002418842E-017,0.0));
#566=DIRECTION('',(-0.0,-0.0,1.0));
#567=DIRECTION('',(-0.0,-0.0,-1.0));
#568=DIRECTION('',(-0.0,-0.0,1.0));
#569=DIRECTION('',(0.0,0.0,-1.0));
#570=SURFACE_STYLE_FILL_AREA(#589);
#571=ORIENTED_EDGE('',*,*,#72,.T.);
#572=ORIENTED_EDGE('',*,*,#96,.F.);
#573=ORIENTED_EDGE('',*,*,#132,.T.);
#574=ORIENTED_EDGE('',*,*,#126,.T.);
#575=CARTESIAN_POINT('',(2.8421709430404E-014,7.4888938461152E-015,59.0));
#576=DIRECTION('',(0.0,-0.0,-1.0));
#577=DIRECTION('',(1.0,-2.43174002418842E-017,0.0));
#578=FILL_AREA_STYLE('',(#590));
#579=FILL_AREA_STYLE('',(#591));
#580=FILL_AREA_STYLE('',(#592));
#581=FILL_AREA_STYLE('',(#593));
#582=FILL_AREA_STYLE('',(#594));
#583=FILL_AREA_STYLE('',(#595));
#584=FILL_AREA_STYLE('',(#596));
#585=FILL_AREA_STYLE('',(#597));
#586=FILL_AREA_STYLE('',(#598));
#587=FILL_AREA_STYLE('',(#599));
#588=FILL_AREA_STYLE('',(#600));
#589=FILL_AREA_STYLE('',(#601));
#590=FILL_AREA_STYLE_COLOUR('',#602);
#591=FILL_AREA_STYLE_COLOUR('',#603);
#592=FILL_AREA_STYLE_COLOUR('',#604);
#593=FILL_AREA_STYLE_COLOUR('',#605);
#594=FILL_AREA_STYLE_COLOUR('',#606);
#595=FILL_AREA_STYLE_COLOUR('',#607);
#596=FILL_AREA_STYLE_COLOUR('',#608);
#597=FILL_AREA_STYLE_COLOUR('',#609);
#598=FILL_AREA_STYLE_COLOUR('',#610);
#599=FILL_AREA_STYLE_COLOUR('',#611);
#600=FILL_AREA_STYLE_COLOUR('',#612);
#601=FILL_AREA_STYLE_COLOUR('',#613);
#602=COLOUR_RGB('',0.509803950786591,0.509803950786591,0.588235318660736);
#603=COLOUR_RGB('',0.509803950786591,0.509803950786591,0.588235318660736);
#604=COLOUR_RGB('',0.509803950786591,0.509803950786591,0.588235318660736);
#605=COLOUR_RGB('',0.509803950786591,0.509803950786591,0.588235318660736);
#606=COLOUR_RGB('',0.509803950786591,0.509803950786591,0.588235318660736);
#607=COLOUR_RGB('',0.509803950786591,0.509803950786591,0.588235318660736);
#608=COLOUR_RGB('',0.509803950786591,0.509803950786591,0.588235318660736);
#609=COLOUR_RGB('',0.509803950786591,0.509803950786591,0.588235318660736);
#610=COLOUR_RGB('',0.509803950786591,0.509803950786591,0.588235318660736);
#611=COLOUR_RGB('',0.509803950786591,0.509803950786591,0.588235318660736);
#612=COLOUR_RGB('',0.509803950786591,0.509803950786591,0.588235318660736);
#613=COLOUR_RGB('',0.509803950786591,0.509803950786591,0.588235318660736);
ENDSEC;
END-ISO-10303-21;
