ISO-10303-21;
HEADER;
FILE_DESCRIPTION(('STEP AP214'),'1');
FILE_NAME(' ','  ',('TraceParts'),('TraceParts S.A.'),'XStep 1.0',' ',' ');
FILE_SCHEMA(('automotive_design'));
ENDSEC;
DATA;
#1=MECHANICAL_DESIGN_GEOMETRIC_PRESENTATION_REPRESENTATION(' ',(#10,#11,#12,#13,#14,#15,#16,#17,#18,#19,#20,#21,#22,#23,#24,#25,#26,#27,#28,#29,#30,#31,#32,#33,#34,#35,#36),#6);
#2=PRODUCT_DEFINITION_CONTEXT('',#37,'design');
#3=APPLICATION_PROTOCOL_DEFINITION('INTERNATIONAL STANDARD','automotive_design',1994,#37);
#4=PRODUCT_CATEGORY_RELATIONSHIP('NONE','NONE',#38,#39);
#5=SHAPE_DEFINITION_REPRESENTATION(#40,#41);
#6= (GEOMETRIC_REPRESENTATION_CONTEXT(3)GLOBAL_UNCERTAINTY_ASSIGNED_CONTEXT((#44))GLOBAL_UNIT_ASSIGNED_CONTEXT((#46,#47,#48))REPRESENTATION_CONTEXT('NONE','WORKSPACE'));
#10=STYLED_ITEM('',(#50),#51);
#11=STYLED_ITEM('',(#52),#53);
#12=STYLED_ITEM('',(#54),#55);
#13=STYLED_ITEM('',(#56),#57);
#14=STYLED_ITEM('',(#58),#59);
#15=STYLED_ITEM('',(#60),#61);
#16=STYLED_ITEM('',(#62),#63);
#17=STYLED_ITEM('',(#64),#65);
#18=STYLED_ITEM('',(#66),#67);
#19=STYLED_ITEM('',(#68),#69);
#20=STYLED_ITEM('',(#70),#71);
#21=STYLED_ITEM('',(#72),#73);
#22=STYLED_ITEM('',(#74),#75);
#23=STYLED_ITEM('',(#76),#77);
#24=STYLED_ITEM('',(#78),#79);
#25=STYLED_ITEM('',(#80),#81);
#26=STYLED_ITEM('',(#82),#83);
#27=STYLED_ITEM('',(#84),#85);
#28=STYLED_ITEM('',(#86),#87);
#29=STYLED_ITEM('',(#88),#89);
#30=STYLED_ITEM('',(#90),#91);
#31=STYLED_ITEM('',(#92),#93);
#32=STYLED_ITEM('',(#94),#95);
#33=STYLED_ITEM('',(#96),#97);
#34=STYLED_ITEM('',(#98),#99);
#35=STYLED_ITEM('',(#100),#101);
#36=STYLED_ITEM('',(#102),#103);
#37=APPLICATION_CONTEXT(' ');
#38=PRODUCT_CATEGORY('part','NONE');
#39=PRODUCT_RELATED_PRODUCT_CATEGORY('detail',' ',(#104));
#40=PRODUCT_DEFINITION_SHAPE('NONE','NONE',#105);
#41=ADVANCED_BREP_SHAPE_REPRESENTATION('1',(#51,#106),#6);
#44=UNCERTAINTY_MEASURE_WITH_UNIT(LENGTH_MEASURE(1.0E-006),#46,'','');
#46= (CONVERSION_BASED_UNIT('MILLIMETRE',#109)LENGTH_UNIT()NAMED_UNIT(#112));
#47= (NAMED_UNIT(#114)PLANE_ANGLE_UNIT()SI_UNIT($,.RADIAN.));
#48= (NAMED_UNIT(#114)SOLID_ANGLE_UNIT()SI_UNIT($,.STERADIAN.));
#50=PRESENTATION_STYLE_ASSIGNMENT((#120));
#51=MANIFOLD_SOLID_BREP('1',#121);
#52=PRESENTATION_STYLE_ASSIGNMENT((#122));
#53=ADVANCED_FACE('',(#123),#124,.F.);
#54=PRESENTATION_STYLE_ASSIGNMENT((#125));
#55=ADVANCED_FACE('',(#126,#127),#128,.F.);
#56=PRESENTATION_STYLE_ASSIGNMENT((#129));
#57=EDGE_CURVE('',#63,#59,#130,.T.);
#58=PRESENTATION_STYLE_ASSIGNMENT((#131));
#59=VERTEX_POINT('',#132);
#60=PRESENTATION_STYLE_ASSIGNMENT((#133));
#61=VERTEX_POINT('',#134);
#62=PRESENTATION_STYLE_ASSIGNMENT((#135));
#63=VERTEX_POINT('',#136);
#64=PRESENTATION_STYLE_ASSIGNMENT((#137));
#65=EDGE_CURVE('',#67,#77,#138,.T.);
#66=PRESENTATION_STYLE_ASSIGNMENT((#139));
#67=VERTEX_POINT('',#140);
#68=PRESENTATION_STYLE_ASSIGNMENT((#141));
#69=VERTEX_POINT('',#142);
#70=PRESENTATION_STYLE_ASSIGNMENT((#143));
#71=EDGE_CURVE('',#59,#61,#144,.T.);
#72=PRESENTATION_STYLE_ASSIGNMENT((#145));
#73=EDGE_CURVE('',#59,#63,#146,.T.);
#74=PRESENTATION_STYLE_ASSIGNMENT((#147));
#75=EDGE_CURVE('',#97,#61,#148,.T.);
#76=PRESENTATION_STYLE_ASSIGNMENT((#149));
#77=VERTEX_POINT('',#150);
#78=PRESENTATION_STYLE_ASSIGNMENT((#151));
#79=EDGE_CURVE('',#77,#67,#152,.T.);
#80=PRESENTATION_STYLE_ASSIGNMENT((#153));
#81=EDGE_CURVE('',#61,#97,#154,.T.);
#82=PRESENTATION_STYLE_ASSIGNMENT((#155));
#83=ADVANCED_FACE('',(#156),#157,.F.);
#84=PRESENTATION_STYLE_ASSIGNMENT((#158));
#85=ADVANCED_FACE('',(#159),#160,.T.);
#86=PRESENTATION_STYLE_ASSIGNMENT((#161));
#87=ADVANCED_FACE('',(#162),#163,.T.);
#88=PRESENTATION_STYLE_ASSIGNMENT((#164));
#89=EDGE_CURVE('',#101,#67,#165,.T.);
#90=PRESENTATION_STYLE_ASSIGNMENT((#166));
#91=EDGE_CURVE('',#97,#63,#167,.T.);
#92=PRESENTATION_STYLE_ASSIGNMENT((#168));
#93=ADVANCED_FACE('',(#169,#170),#171,.T.);
#94=PRESENTATION_STYLE_ASSIGNMENT((#172));
#95=EDGE_CURVE('',#77,#69,#173,.T.);
#96=PRESENTATION_STYLE_ASSIGNMENT((#174));
#97=VERTEX_POINT('',#175);
#98=PRESENTATION_STYLE_ASSIGNMENT((#176));
#99=EDGE_CURVE('',#101,#69,#177,.T.);
#100=PRESENTATION_STYLE_ASSIGNMENT((#178));
#101=VERTEX_POINT('',#179);
#102=PRESENTATION_STYLE_ASSIGNMENT((#180));
#103=EDGE_CURVE('',#69,#101,#181,.T.);
#104=PRODUCT('1','1','PART-1-DESC',(#182));
#105=PRODUCT_DEFINITION('NONE','NONE',#183,#2);
#106=AXIS2_PLACEMENT_3D('',#184,#185,#186);
#109=LENGTH_MEASURE_WITH_UNIT(LENGTH_MEASURE(1.0),#187);
#112=DIMENSIONAL_EXPONENTS(1.0,0.0,0.0,0.0,0.0,0.0,0.0);
#114=DIMENSIONAL_EXPONENTS(0.0,0.0,0.0,0.0,0.0,0.0,0.0);
#120=SURFACE_STYLE_USAGE(.BOTH.,#188);
#121=CLOSED_SHELL('',(#87,#53,#83,#85,#55,#93));
#122=SURFACE_STYLE_USAGE(.BOTH.,#189);
#123=FACE_OUTER_BOUND('',#190,.T.);
#124=CYLINDRICAL_SURFACE('',#191,8.75);
#125=SURFACE_STYLE_USAGE(.BOTH.,#192);
#126=FACE_BOUND('',#193,.T.);
#127=FACE_OUTER_BOUND('',#194,.T.);
#128=PLANE('',#195);
#129=CURVE_STYLE('',#196,POSITIVE_LENGTH_MEASURE(1.0E-006),#197);
#130=CIRCLE('',#198,8.75);
#131=POINT_STYLE(' ',#199,POSITIVE_LENGTH_MEASURE(1.0E-006),#200);
#132=CARTESIAN_POINT('',(8.75,-1.07153055959458E-015,5.0));
#133=POINT_STYLE(' ',#201,POSITIVE_LENGTH_MEASURE(1.0E-006),#202);
#134=CARTESIAN_POINT('',(8.75,0.0,0.0));
#135=POINT_STYLE(' ',#203,POSITIVE_LENGTH_MEASURE(1.0E-006),#204);
#136=CARTESIAN_POINT('',(-8.75,0.0,5.0));
#137=CURVE_STYLE('',#205,POSITIVE_LENGTH_MEASURE(1.0E-006),#206);
#138=CIRCLE('',#207,29.75);
#139=POINT_STYLE(' ',#208,POSITIVE_LENGTH_MEASURE(1.0E-006),#209);
#140=CARTESIAN_POINT('',(29.75,-3.64320390262157E-015,5.0));
#141=POINT_STYLE(' ',#210,POSITIVE_LENGTH_MEASURE(1.0E-006),#211);
#142=CARTESIAN_POINT('',(-29.75,3.64320390262157E-015,0.0));
#143=CURVE_STYLE('',#212,POSITIVE_LENGTH_MEASURE(1.0E-006),#213);
#144=LINE('',#214,#215);
#145=CURVE_STYLE('',#216,POSITIVE_LENGTH_MEASURE(1.0E-006),#217);
#146=CIRCLE('',#218,8.75);
#147=CURVE_STYLE('',#219,POSITIVE_LENGTH_MEASURE(1.0E-006),#220);
#148=CIRCLE('',#221,8.75);
#149=POINT_STYLE(' ',#222,POSITIVE_LENGTH_MEASURE(1.0E-006),#223);
#150=CARTESIAN_POINT('',(-29.75,0.0,5.0));
#151=CURVE_STYLE('',#224,POSITIVE_LENGTH_MEASURE(1.0E-006),#225);
#152=CIRCLE('',#226,29.75);
#153=CURVE_STYLE('',#227,POSITIVE_LENGTH_MEASURE(1.0E-006),#228);
#154=CIRCLE('',#229,8.75);
#155=SURFACE_STYLE_USAGE(.BOTH.,#230);
#156=FACE_OUTER_BOUND('',#231,.T.);
#157=CYLINDRICAL_SURFACE('',#232,8.75);
#158=SURFACE_STYLE_USAGE(.BOTH.,#233);
#159=FACE_OUTER_BOUND('',#234,.T.);
#160=CYLINDRICAL_SURFACE('',#235,29.75);
#161=SURFACE_STYLE_USAGE(.BOTH.,#236);
#162=FACE_OUTER_BOUND('',#237,.T.);
#163=CYLINDRICAL_SURFACE('',#238,29.75);
#164=CURVE_STYLE('',#239,POSITIVE_LENGTH_MEASURE(1.0E-006),#240);
#165=LINE('',#241,#242);
#166=CURVE_STYLE('',#243,POSITIVE_LENGTH_MEASURE(1.0E-006),#244);
#167=LINE('',#245,#246);
#168=SURFACE_STYLE_USAGE(.BOTH.,#247);
#169=FACE_BOUND('',#248,.T.);
#170=FACE_OUTER_BOUND('',#249,.T.);
#171=PLANE('',#250);
#172=CURVE_STYLE('',#251,POSITIVE_LENGTH_MEASURE(1.0E-006),#252);
#173=LINE('',#253,#254);
#174=POINT_STYLE(' ',#255,POSITIVE_LENGTH_MEASURE(1.0E-006),#256);
#175=CARTESIAN_POINT('',(-8.75,1.07153055959458E-015,0.0));
#176=CURVE_STYLE('',#257,POSITIVE_LENGTH_MEASURE(1.0E-006),#258);
#177=CIRCLE('',#259,29.75);
#178=POINT_STYLE(' ',#260,POSITIVE_LENGTH_MEASURE(1.0E-006),#261);
#179=CARTESIAN_POINT('',(29.75,0.0,0.0));
#180=CURVE_STYLE('',#262,POSITIVE_LENGTH_MEASURE(1.0E-006),#263);
#181=CIRCLE('',#264,29.75);
#182=PRODUCT_CONTEXT('',#37,'mechanical');
#183=PRODUCT_DEFINITION_FORMATION_WITH_SPECIFIED_SOURCE(' ','NONE',#104,.NOT_KNOWN.);
#184=CARTESIAN_POINT('',(0.0,0.0,0.0));
#185=DIRECTION('',(0.0,0.0,1.0));
#186=DIRECTION('',(1.0,0.0,0.0));
#187= (NAMED_UNIT(#112)LENGTH_UNIT()SI_UNIT(.MILLI.,.METRE.));
#188=SURFACE_SIDE_STYLE('',(#266));
#189=SURFACE_SIDE_STYLE('',(#267));
#190=EDGE_LOOP('',(#268,#269,#270,#271));
#191=AXIS2_PLACEMENT_3D('',#272,#273,#274);
#192=SURFACE_SIDE_STYLE('',(#275));
#193=EDGE_LOOP('',(#276,#277));
#194=EDGE_LOOP('',(#278,#279));
#195=AXIS2_PLACEMENT_3D('',#280,#281,#282);
#196=DRAUGHTING_PRE_DEFINED_CURVE_FONT('continuous');
#197=COLOUR_RGB('',0.509803950786591,0.509803950786591,0.588235318660736);
#198=AXIS2_PLACEMENT_3D('',#283,#284,#285);
#199=PRE_DEFINED_MARKER('');
#200=COLOUR_RGB('',0.509803950786591,0.509803950786591,0.588235318660736);
#201=PRE_DEFINED_MARKER('');
#202=COLOUR_RGB('',0.509803950786591,0.509803950786591,0.588235318660736);
#203=PRE_DEFINED_MARKER('');
#204=COLOUR_RGB('',0.509803950786591,0.509803950786591,0.588235318660736);
#205=DRAUGHTING_PRE_DEFINED_CURVE_FONT('continuous');
#206=COLOUR_RGB('',0.509803950786591,0.509803950786591,0.588235318660736);
#207=AXIS2_PLACEMENT_3D('',#286,#287,#288);
#208=PRE_DEFINED_MARKER('');
#209=COLOUR_RGB('',0.509803950786591,0.509803950786591,0.588235318660736);
#210=PRE_DEFINED_MARKER('');
#211=COLOUR_RGB('',0.509803950786591,0.509803950786591,0.588235318660736);
#212=DRAUGHTING_PRE_DEFINED_CURVE_FONT('continuous');
#213=COLOUR_RGB('',0.509803950786591,0.509803950786591,0.588235318660736);
#214=CARTESIAN_POINT('',(8.75,-1.07153055959458E-015,0.0));
#215=VECTOR('',#289,1.0);
#216=DRAUGHTING_PRE_DEFINED_CURVE_FONT('continuous');
#217=COLOUR_RGB('',0.509803950786591,0.509803950786591,0.588235318660736);
#218=AXIS2_PLACEMENT_3D('',#290,#291,#292);
#219=DRAUGHTING_PRE_DEFINED_CURVE_FONT('continuous');
#220=COLOUR_RGB('',0.509803950786591,0.509803950786591,0.588235318660736);
#221=AXIS2_PLACEMENT_3D('',#293,#294,#295);
#222=PRE_DEFINED_MARKER('');
#223=COLOUR_RGB('',0.509803950786591,0.509803950786591,0.588235318660736);
#224=DRAUGHTING_PRE_DEFINED_CURVE_FONT('continuous');
#225=COLOUR_RGB('',0.509803950786591,0.509803950786591,0.588235318660736);
#226=AXIS2_PLACEMENT_3D('',#296,#297,#298);
#227=DRAUGHTING_PRE_DEFINED_CURVE_FONT('continuous');
#228=COLOUR_RGB('',0.509803950786591,0.509803950786591,0.588235318660736);
#229=AXIS2_PLACEMENT_3D('',#299,#300,#301);
#230=SURFACE_SIDE_STYLE('',(#302));
#231=EDGE_LOOP('',(#303,#304,#305,#306));
#232=AXIS2_PLACEMENT_3D('',#307,#308,#309);
#233=SURFACE_SIDE_STYLE('',(#310));
#234=EDGE_LOOP('',(#311,#312,#313,#314));
#235=AXIS2_PLACEMENT_3D('',#315,#316,#317);
#236=SURFACE_SIDE_STYLE('',(#318));
#237=EDGE_LOOP('',(#319,#320,#321,#322));
#238=AXIS2_PLACEMENT_3D('',#323,#324,#325);
#239=DRAUGHTING_PRE_DEFINED_CURVE_FONT('continuous');
#240=COLOUR_RGB('',0.509803950786591,0.509803950786591,0.588235318660736);
#241=CARTESIAN_POINT('',(29.75,-3.64320390262157E-015,0.0));
#242=VECTOR('',#326,1.0);
#243=DRAUGHTING_PRE_DEFINED_CURVE_FONT('continuous');
#244=COLOUR_RGB('',0.509803950786591,0.509803950786591,0.588235318660736);
#245=CARTESIAN_POINT('',(-8.75,1.07153055959458E-015,0.0));
#246=VECTOR('',#327,1.0);
#247=SURFACE_SIDE_STYLE('',(#328));
#248=EDGE_LOOP('',(#329,#330));
#249=EDGE_LOOP('',(#331,#332));
#250=AXIS2_PLACEMENT_3D('',#333,#334,#335);
#251=DRAUGHTING_PRE_DEFINED_CURVE_FONT('continuous');
#252=COLOUR_RGB('',0.509803950786591,0.509803950786591,0.588235318660736);
#253=CARTESIAN_POINT('',(-29.75,3.64320390262157E-015,0.0));
#254=VECTOR('',#336,1.0);
#255=PRE_DEFINED_MARKER('');
#256=COLOUR_RGB('',0.509803950786591,0.509803950786591,0.588235318660736);
#257=DRAUGHTING_PRE_DEFINED_CURVE_FONT('continuous');
#258=COLOUR_RGB('',0.509803950786591,0.509803950786591,0.588235318660736);
#259=AXIS2_PLACEMENT_3D('',#337,#338,#339);
#260=PRE_DEFINED_MARKER('');
#261=COLOUR_RGB('',0.509803950786591,0.509803950786591,0.588235318660736);
#262=DRAUGHTING_PRE_DEFINED_CURVE_FONT('continuous');
#263=COLOUR_RGB('',0.509803950786591,0.509803950786591,0.588235318660736);
#264=AXIS2_PLACEMENT_3D('',#340,#341,#342);
#266=SURFACE_STYLE_FILL_AREA(#343);
#267=SURFACE_STYLE_FILL_AREA(#344);
#268=ORIENTED_EDGE('',*,*,#71,.F.);
#269=ORIENTED_EDGE('',*,*,#57,.F.);
#270=ORIENTED_EDGE('',*,*,#91,.F.);
#271=ORIENTED_EDGE('',*,*,#81,.F.);
#272=CARTESIAN_POINT('',(0.0,0.0,0.0));
#273=DIRECTION('',(-0.0,-0.0,-1.0));
#274=DIRECTION('',(1.0,0.0,0.0));
#275=SURFACE_STYLE_FILL_AREA(#345);
#276=ORIENTED_EDGE('',*,*,#81,.T.);
#277=ORIENTED_EDGE('',*,*,#75,.T.);
#278=ORIENTED_EDGE('',*,*,#99,.F.);
#279=ORIENTED_EDGE('',*,*,#103,.F.);
#280=CARTESIAN_POINT('',(0.0,0.0,0.0));
#281=DIRECTION('',(0.0,0.0,1.0));
#282=DIRECTION('',(1.0,0.0,0.0));
#283=CARTESIAN_POINT('',(0.0,0.0,5.0));
#284=DIRECTION('',(0.0,0.0,-1.0));
#285=DIRECTION('',(1.0,0.0,0.0));
#286=CARTESIAN_POINT('',(0.0,0.0,5.0));
#287=DIRECTION('',(0.0,0.0,-1.0));
#288=DIRECTION('',(-1.0,0.0,0.0));
#289=DIRECTION('',(-0.0,0.0,-1.0));
#290=CARTESIAN_POINT('',(0.0,0.0,5.0));
#291=DIRECTION('',(0.0,0.0,-1.0));
#292=DIRECTION('',(1.0,0.0,0.0));
#293=CARTESIAN_POINT('',(0.0,0.0,0.0));
#294=DIRECTION('',(0.0,0.0,1.0));
#295=DIRECTION('',(1.0,0.0,0.0));
#296=CARTESIAN_POINT('',(0.0,0.0,5.0));
#297=DIRECTION('',(0.0,0.0,-1.0));
#298=DIRECTION('',(-1.0,0.0,0.0));
#299=CARTESIAN_POINT('',(0.0,0.0,0.0));
#300=DIRECTION('',(0.0,0.0,1.0));
#301=DIRECTION('',(1.0,0.0,0.0));
#302=SURFACE_STYLE_FILL_AREA(#346);
#303=ORIENTED_EDGE('',*,*,#71,.T.);
#304=ORIENTED_EDGE('',*,*,#75,.F.);
#305=ORIENTED_EDGE('',*,*,#91,.T.);
#306=ORIENTED_EDGE('',*,*,#73,.F.);
#307=CARTESIAN_POINT('',(0.0,0.0,0.0));
#308=DIRECTION('',(-0.0,-0.0,-1.0));
#309=DIRECTION('',(1.0,0.0,0.0));
#310=SURFACE_STYLE_FILL_AREA(#347);
#311=ORIENTED_EDGE('',*,*,#89,.T.);
#312=ORIENTED_EDGE('',*,*,#65,.T.);
#313=ORIENTED_EDGE('',*,*,#95,.T.);
#314=ORIENTED_EDGE('',*,*,#103,.T.);
#315=CARTESIAN_POINT('',(0.0,0.0,0.0));
#316=DIRECTION('',(-0.0,-0.0,-1.0));
#317=DIRECTION('',(1.0,0.0,0.0));
#318=SURFACE_STYLE_FILL_AREA(#348);
#319=ORIENTED_EDGE('',*,*,#89,.F.);
#320=ORIENTED_EDGE('',*,*,#99,.T.);
#321=ORIENTED_EDGE('',*,*,#95,.F.);
#322=ORIENTED_EDGE('',*,*,#79,.T.);
#323=CARTESIAN_POINT('',(0.0,0.0,0.0));
#324=DIRECTION('',(-0.0,-0.0,-1.0));
#325=DIRECTION('',(1.0,0.0,0.0));
#326=DIRECTION('',(0.0,0.0,1.0));
#327=DIRECTION('',(-0.0,0.0,1.0));
#328=SURFACE_STYLE_FILL_AREA(#349);
#329=ORIENTED_EDGE('',*,*,#57,.T.);
#330=ORIENTED_EDGE('',*,*,#73,.T.);
#331=ORIENTED_EDGE('',*,*,#79,.F.);
#332=ORIENTED_EDGE('',*,*,#65,.F.);
#333=CARTESIAN_POINT('',(0.0,0.0,5.0));
#334=DIRECTION('',(0.0,0.0,1.0));
#335=DIRECTION('',(1.0,0.0,0.0));
#336=DIRECTION('',(-0.0,-0.0,-1.0));
#337=CARTESIAN_POINT('',(0.0,0.0,0.0));
#338=DIRECTION('',(0.0,0.0,1.0));
#339=DIRECTION('',(1.0,0.0,0.0));
#340=CARTESIAN_POINT('',(0.0,0.0,0.0));
#341=DIRECTION('',(0.0,0.0,1.0));
#342=DIRECTION('',(1.0,0.0,0.0));
#343=FILL_AREA_STYLE('',(#350));
#344=FILL_AREA_STYLE('',(#351));
#345=FILL_AREA_STYLE('',(#352));
#346=FILL_AREA_STYLE('',(#353));
#347=FILL_AREA_STYLE('',(#354));
#348=FILL_AREA_STYLE('',(#355));
#349=FILL_AREA_STYLE('',(#356));
#350=FILL_AREA_STYLE_COLOUR('',#357);
#351=FILL_AREA_STYLE_COLOUR('',#358);
#352=FILL_AREA_STYLE_COLOUR('',#359);
#353=FILL_AREA_STYLE_COLOUR('',#360);
#354=FILL_AREA_STYLE_COLOUR('',#361);
#355=FILL_AREA_STYLE_COLOUR('',#362);
#356=FILL_AREA_STYLE_COLOUR('',#363);
#357=COLOUR_RGB('',0.509803950786591,0.509803950786591,0.588235318660736);
#358=COLOUR_RGB('',0.509803950786591,0.509803950786591,0.588235318660736);
#359=COLOUR_RGB('',0.509803950786591,0.509803950786591,0.588235318660736);
#360=COLOUR_RGB('',0.509803950786591,0.509803950786591,0.588235318660736);
#361=COLOUR_RGB('',0.509803950786591,0.509803950786591,0.588235318660736);
#362=COLOUR_RGB('',0.509803950786591,0.509803950786591,0.588235318660736);
#363=COLOUR_RGB('',0.509803950786591,0.509803950786591,0.588235318660736);
ENDSEC;
END-ISO-10303-21;
