ISO-10303-21;
HEADER;
FILE_DESCRIPTION(('STEP AP214'),'1');
FILE_NAME(' ','  ',('TraceParts'),('TraceParts S.A.'),'XStep 1.0',' ',' ');
FILE_SCHEMA(('automotive_design'));
ENDSEC;
DATA;
#1=MECHANICAL_DESIGN_GEOMETRIC_PRESENTATION_REPRESENTATION(' ',(#10,#11,#12,#13,#14,#15,#16,#17,#18,#19,#20,#21,#22,#23,#24,#25,#26,#27,#28,#29,#30,#31,#32,#33,#34,#35,#36),#6);
#2=PRODUCT_DEFINITION_CONTEXT('',#37,'design');
#3=APPLICATION_PROTOCOL_DEFINITION('INTERNATIONAL STANDARD','automotive_design',1994,#37);
#4=PRODUCT_CATEGORY_RELATIONSHIP('NONE','NONE',#38,#39);
#5=SHAPE_DEFINITION_REPRESENTATION(#40,#41);
#6= (GEOMETRIC_REPRESENTATION_CONTEXT(3)GLOBAL_UNCERTAINTY_ASSIGNED_CONTEXT((#44))GLOBAL_UNIT_ASSIGNED_CONTEXT((#46,#47,#48))REPRESENTATION_CONTEXT('NONE','WORKSPACE'));
#10=STYLED_ITEM('',(#50),#51);
#11=STYLED_ITEM('',(#52),#53);
#12=STYLED_ITEM('',(#54),#55);
#13=STYLED_ITEM('',(#56),#57);
#14=STYLED_ITEM('',(#58),#59);
#15=STYLED_ITEM('',(#60),#61);
#16=STYLED_ITEM('',(#62),#63);
#17=STYLED_ITEM('',(#64),#65);
#18=STYLED_ITEM('',(#66),#67);
#19=STYLED_ITEM('',(#68),#69);
#20=STYLED_ITEM('',(#70),#71);
#21=STYLED_ITEM('',(#72),#73);
#22=STYLED_ITEM('',(#74),#75);
#23=STYLED_ITEM('',(#76),#77);
#24=STYLED_ITEM('',(#78),#79);
#25=STYLED_ITEM('',(#80),#81);
#26=STYLED_ITEM('',(#82),#83);
#27=STYLED_ITEM('',(#84),#85);
#28=STYLED_ITEM('',(#86),#87);
#29=STYLED_ITEM('',(#88),#89);
#30=STYLED_ITEM('',(#90),#91);
#31=STYLED_ITEM('',(#92),#93);
#32=STYLED_ITEM('',(#94),#95);
#33=STYLED_ITEM('',(#96),#97);
#34=STYLED_ITEM('',(#98),#99);
#35=STYLED_ITEM('',(#100),#101);
#36=STYLED_ITEM('',(#102),#103);
#37=APPLICATION_CONTEXT(' ');
#38=PRODUCT_CATEGORY('part','NONE');
#39=PRODUCT_RELATED_PRODUCT_CATEGORY('detail',' ',(#104));
#40=PRODUCT_DEFINITION_SHAPE('NONE','NONE',#105);
#41=ADVANCED_BREP_SHAPE_REPRESENTATION('1',(#51,#106),#6);
#44=UNCERTAINTY_MEASURE_WITH_UNIT(LENGTH_MEASURE(1.0E-006),#46,'','');
#46= (CONVERSION_BASED_UNIT('MILLIMETRE',#109)LENGTH_UNIT()NAMED_UNIT(#112));
#47= (NAMED_UNIT(#114)PLANE_ANGLE_UNIT()SI_UNIT($,.RADIAN.));
#48= (NAMED_UNIT(#114)SOLID_ANGLE_UNIT()SI_UNIT($,.STERADIAN.));
#50=PRESENTATION_STYLE_ASSIGNMENT((#120));
#51=MANIFOLD_SOLID_BREP('1',#121);
#52=PRESENTATION_STYLE_ASSIGNMENT((#122));
#53=ADVANCED_FACE('',(#123),#124,.F.);
#54=PRESENTATION_STYLE_ASSIGNMENT((#125));
#55=EDGE_CURVE('',#99,#101,#126,.T.);
#56=PRESENTATION_STYLE_ASSIGNMENT((#127));
#57=VERTEX_POINT('',#128);
#58=PRESENTATION_STYLE_ASSIGNMENT((#129));
#59=VERTEX_POINT('',#130);
#60=PRESENTATION_STYLE_ASSIGNMENT((#131));
#61=VERTEX_POINT('',#132);
#62=PRESENTATION_STYLE_ASSIGNMENT((#133));
#63=EDGE_CURVE('',#89,#57,#134,.T.);
#64=PRESENTATION_STYLE_ASSIGNMENT((#135));
#65=EDGE_CURVE('',#59,#95,#136,.T.);
#66=PRESENTATION_STYLE_ASSIGNMENT((#137));
#67=ADVANCED_FACE('',(#138),#139,.T.);
#68=PRESENTATION_STYLE_ASSIGNMENT((#140));
#69=ADVANCED_FACE('',(#141),#142,.F.);
#70=PRESENTATION_STYLE_ASSIGNMENT((#143));
#71=EDGE_CURVE('',#103,#61,#144,.T.);
#72=PRESENTATION_STYLE_ASSIGNMENT((#145));
#73=EDGE_CURVE('',#95,#59,#146,.T.);
#74=PRESENTATION_STYLE_ASSIGNMENT((#147));
#75=EDGE_CURVE('',#101,#89,#148,.T.);
#76=PRESENTATION_STYLE_ASSIGNMENT((#149));
#77=EDGE_CURVE('',#57,#99,#150,.T.);
#78=PRESENTATION_STYLE_ASSIGNMENT((#151));
#79=EDGE_CURVE('',#61,#103,#152,.T.);
#80=PRESENTATION_STYLE_ASSIGNMENT((#153));
#81=ADVANCED_FACE('',(#154),#155,.T.);
#82=PRESENTATION_STYLE_ASSIGNMENT((#156));
#83=ADVANCED_FACE('',(#157,#158),#159,.T.);
#84=PRESENTATION_STYLE_ASSIGNMENT((#160));
#85=EDGE_CURVE('',#101,#99,#161,.T.);
#86=PRESENTATION_STYLE_ASSIGNMENT((#162));
#87=EDGE_CURVE('',#59,#61,#163,.T.);
#88=PRESENTATION_STYLE_ASSIGNMENT((#164));
#89=VERTEX_POINT('',#165);
#90=PRESENTATION_STYLE_ASSIGNMENT((#166));
#91=ADVANCED_FACE('',(#167,#168),#169,.F.);
#92=PRESENTATION_STYLE_ASSIGNMENT((#170));
#93=EDGE_CURVE('',#57,#89,#171,.T.);
#94=PRESENTATION_STYLE_ASSIGNMENT((#172));
#95=VERTEX_POINT('',#173);
#96=PRESENTATION_STYLE_ASSIGNMENT((#174));
#97=EDGE_CURVE('',#103,#95,#175,.T.);
#98=PRESENTATION_STYLE_ASSIGNMENT((#176));
#99=VERTEX_POINT('',#177);
#100=PRESENTATION_STYLE_ASSIGNMENT((#178));
#101=VERTEX_POINT('',#179);
#102=PRESENTATION_STYLE_ASSIGNMENT((#180));
#103=VERTEX_POINT('',#181);
#104=PRODUCT('1','1','PART-1-DESC',(#182));
#105=PRODUCT_DEFINITION('NONE','NONE',#183,#2);
#106=AXIS2_PLACEMENT_3D('',#184,#185,#186);
#109=LENGTH_MEASURE_WITH_UNIT(LENGTH_MEASURE(1.0),#187);
#112=DIMENSIONAL_EXPONENTS(1.0,0.0,0.0,0.0,0.0,0.0,0.0);
#114=DIMENSIONAL_EXPONENTS(0.0,0.0,0.0,0.0,0.0,0.0,0.0);
#120=SURFACE_STYLE_USAGE(.BOTH.,#188);
#121=CLOSED_SHELL('',(#81,#69,#53,#67,#91,#83));
#122=SURFACE_STYLE_USAGE(.BOTH.,#189);
#123=FACE_OUTER_BOUND('',#190,.T.);
#124=CYLINDRICAL_SURFACE('',#191,8.75);
#125=CURVE_STYLE('',#192,POSITIVE_LENGTH_MEASURE(1.0E-006),#193);
#126=CIRCLE('',#194,29.75);
#127=POINT_STYLE(' ',#195,POSITIVE_LENGTH_MEASURE(1.0E-006),#196);
#128=CARTESIAN_POINT('',(-29.75,0.0,4.0));
#129=POINT_STYLE(' ',#197,POSITIVE_LENGTH_MEASURE(1.0E-006),#198);
#130=CARTESIAN_POINT('',(8.75,-1.07153055959458E-015,4.0));
#131=POINT_STYLE(' ',#199,POSITIVE_LENGTH_MEASURE(1.0E-006),#200);
#132=CARTESIAN_POINT('',(8.75,0.0,0.0));
#133=CURVE_STYLE('',#201,POSITIVE_LENGTH_MEASURE(1.0E-006),#202);
#134=CIRCLE('',#203,29.75);
#135=CURVE_STYLE('',#204,POSITIVE_LENGTH_MEASURE(1.0E-006),#205);
#136=CIRCLE('',#206,8.75);
#137=SURFACE_STYLE_USAGE(.BOTH.,#207);
#138=FACE_OUTER_BOUND('',#208,.T.);
#139=CYLINDRICAL_SURFACE('',#209,29.75);
#140=SURFACE_STYLE_USAGE(.BOTH.,#210);
#141=FACE_OUTER_BOUND('',#211,.T.);
#142=CYLINDRICAL_SURFACE('',#212,8.75);
#143=CURVE_STYLE('',#213,POSITIVE_LENGTH_MEASURE(1.0E-006),#214);
#144=CIRCLE('',#215,8.75);
#145=CURVE_STYLE('',#216,POSITIVE_LENGTH_MEASURE(1.0E-006),#217);
#146=CIRCLE('',#218,8.75);
#147=CURVE_STYLE('',#219,POSITIVE_LENGTH_MEASURE(1.0E-006),#220);
#148=LINE('',#221,#222);
#149=CURVE_STYLE('',#223,POSITIVE_LENGTH_MEASURE(1.0E-006),#224);
#150=LINE('',#225,#226);
#151=CURVE_STYLE('',#227,POSITIVE_LENGTH_MEASURE(1.0E-006),#228);
#152=CIRCLE('',#229,8.75);
#153=SURFACE_STYLE_USAGE(.BOTH.,#230);
#154=FACE_OUTER_BOUND('',#231,.T.);
#155=CYLINDRICAL_SURFACE('',#232,29.75);
#156=SURFACE_STYLE_USAGE(.BOTH.,#233);
#157=FACE_BOUND('',#234,.T.);
#158=FACE_OUTER_BOUND('',#235,.T.);
#159=PLANE('',#236);
#160=CURVE_STYLE('',#237,POSITIVE_LENGTH_MEASURE(1.0E-006),#238);
#161=CIRCLE('',#239,29.75);
#162=CURVE_STYLE('',#240,POSITIVE_LENGTH_MEASURE(1.0E-006),#241);
#163=LINE('',#242,#243);
#164=POINT_STYLE(' ',#244,POSITIVE_LENGTH_MEASURE(1.0E-006),#245);
#165=CARTESIAN_POINT('',(29.75,-3.64320390262157E-015,4.0));
#166=SURFACE_STYLE_USAGE(.BOTH.,#246);
#167=FACE_BOUND('',#247,.T.);
#168=FACE_OUTER_BOUND('',#248,.T.);
#169=PLANE('',#249);
#170=CURVE_STYLE('',#250,POSITIVE_LENGTH_MEASURE(1.0E-006),#251);
#171=CIRCLE('',#252,29.75);
#172=POINT_STYLE(' ',#253,POSITIVE_LENGTH_MEASURE(1.0E-006),#254);
#173=CARTESIAN_POINT('',(-8.75,0.0,4.0));
#174=CURVE_STYLE('',#255,POSITIVE_LENGTH_MEASURE(1.0E-006),#256);
#175=LINE('',#257,#258);
#176=POINT_STYLE(' ',#259,POSITIVE_LENGTH_MEASURE(1.0E-006),#260);
#177=CARTESIAN_POINT('',(-29.75,3.64320390262157E-015,0.0));
#178=POINT_STYLE(' ',#261,POSITIVE_LENGTH_MEASURE(1.0E-006),#262);
#179=CARTESIAN_POINT('',(29.75,0.0,0.0));
#180=POINT_STYLE(' ',#263,POSITIVE_LENGTH_MEASURE(1.0E-006),#264);
#181=CARTESIAN_POINT('',(-8.75,1.07153055959458E-015,0.0));
#182=PRODUCT_CONTEXT('',#37,'mechanical');
#183=PRODUCT_DEFINITION_FORMATION_WITH_SPECIFIED_SOURCE(' ','NONE',#104,.NOT_KNOWN.);
#184=CARTESIAN_POINT('',(0.0,0.0,0.0));
#185=DIRECTION('',(0.0,0.0,1.0));
#186=DIRECTION('',(1.0,0.0,0.0));
#187= (NAMED_UNIT(#112)LENGTH_UNIT()SI_UNIT(.MILLI.,.METRE.));
#188=SURFACE_SIDE_STYLE('',(#266));
#189=SURFACE_SIDE_STYLE('',(#267));
#190=EDGE_LOOP('',(#268,#269,#270,#271));
#191=AXIS2_PLACEMENT_3D('',#272,#273,#274);
#192=DRAUGHTING_PRE_DEFINED_CURVE_FONT('continuous');
#193=COLOUR_RGB('',0.509803950786591,0.509803950786591,0.588235318660736);
#194=AXIS2_PLACEMENT_3D('',#275,#276,#277);
#195=PRE_DEFINED_MARKER('');
#196=COLOUR_RGB('',0.509803950786591,0.509803950786591,0.588235318660736);
#197=PRE_DEFINED_MARKER('');
#198=COLOUR_RGB('',0.509803950786591,0.509803950786591,0.588235318660736);
#199=PRE_DEFINED_MARKER('');
#200=COLOUR_RGB('',0.509803950786591,0.509803950786591,0.588235318660736);
#201=DRAUGHTING_PRE_DEFINED_CURVE_FONT('continuous');
#202=COLOUR_RGB('',0.509803950786591,0.509803950786591,0.588235318660736);
#203=AXIS2_PLACEMENT_3D('',#278,#279,#280);
#204=DRAUGHTING_PRE_DEFINED_CURVE_FONT('continuous');
#205=COLOUR_RGB('',0.509803950786591,0.509803950786591,0.588235318660736);
#206=AXIS2_PLACEMENT_3D('',#281,#282,#283);
#207=SURFACE_SIDE_STYLE('',(#284));
#208=EDGE_LOOP('',(#285,#286,#287,#288));
#209=AXIS2_PLACEMENT_3D('',#289,#290,#291);
#210=SURFACE_SIDE_STYLE('',(#292));
#211=EDGE_LOOP('',(#293,#294,#295,#296));
#212=AXIS2_PLACEMENT_3D('',#297,#298,#299);
#213=DRAUGHTING_PRE_DEFINED_CURVE_FONT('continuous');
#214=COLOUR_RGB('',0.509803950786591,0.509803950786591,0.588235318660736);
#215=AXIS2_PLACEMENT_3D('',#300,#301,#302);
#216=DRAUGHTING_PRE_DEFINED_CURVE_FONT('continuous');
#217=COLOUR_RGB('',0.509803950786591,0.509803950786591,0.588235318660736);
#218=AXIS2_PLACEMENT_3D('',#303,#304,#305);
#219=DRAUGHTING_PRE_DEFINED_CURVE_FONT('continuous');
#220=COLOUR_RGB('',0.509803950786591,0.509803950786591,0.588235318660736);
#221=CARTESIAN_POINT('',(29.75,-3.64320390262157E-015,0.0));
#222=VECTOR('',#306,1.0);
#223=DRAUGHTING_PRE_DEFINED_CURVE_FONT('continuous');
#224=COLOUR_RGB('',0.509803950786591,0.509803950786591,0.588235318660736);
#225=CARTESIAN_POINT('',(-29.75,3.64320390262157E-015,0.0));
#226=VECTOR('',#307,1.0);
#227=DRAUGHTING_PRE_DEFINED_CURVE_FONT('continuous');
#228=COLOUR_RGB('',0.509803950786591,0.509803950786591,0.588235318660736);
#229=AXIS2_PLACEMENT_3D('',#308,#309,#310);
#230=SURFACE_SIDE_STYLE('',(#311));
#231=EDGE_LOOP('',(#312,#313,#314,#315));
#232=AXIS2_PLACEMENT_3D('',#316,#317,#318);
#233=SURFACE_SIDE_STYLE('',(#319));
#234=EDGE_LOOP('',(#320,#321));
#235=EDGE_LOOP('',(#322,#323));
#236=AXIS2_PLACEMENT_3D('',#324,#325,#326);
#237=DRAUGHTING_PRE_DEFINED_CURVE_FONT('continuous');
#238=COLOUR_RGB('',0.509803950786591,0.509803950786591,0.588235318660736);
#239=AXIS2_PLACEMENT_3D('',#327,#328,#329);
#240=DRAUGHTING_PRE_DEFINED_CURVE_FONT('continuous');
#241=COLOUR_RGB('',0.509803950786591,0.509803950786591,0.588235318660736);
#242=CARTESIAN_POINT('',(8.75,-1.07153055959458E-015,0.0));
#243=VECTOR('',#330,1.0);
#244=PRE_DEFINED_MARKER('');
#245=COLOUR_RGB('',0.509803950786591,0.509803950786591,0.588235318660736);
#246=SURFACE_SIDE_STYLE('',(#331));
#247=EDGE_LOOP('',(#332,#333));
#248=EDGE_LOOP('',(#334,#335));
#249=AXIS2_PLACEMENT_3D('',#336,#337,#338);
#250=DRAUGHTING_PRE_DEFINED_CURVE_FONT('continuous');
#251=COLOUR_RGB('',0.509803950786591,0.509803950786591,0.588235318660736);
#252=AXIS2_PLACEMENT_3D('',#339,#340,#341);
#253=PRE_DEFINED_MARKER('');
#254=COLOUR_RGB('',0.509803950786591,0.509803950786591,0.588235318660736);
#255=DRAUGHTING_PRE_DEFINED_CURVE_FONT('continuous');
#256=COLOUR_RGB('',0.509803950786591,0.509803950786591,0.588235318660736);
#257=CARTESIAN_POINT('',(-8.75,1.07153055959458E-015,0.0));
#258=VECTOR('',#342,1.0);
#259=PRE_DEFINED_MARKER('');
#260=COLOUR_RGB('',0.509803950786591,0.509803950786591,0.588235318660736);
#261=PRE_DEFINED_MARKER('');
#262=COLOUR_RGB('',0.509803950786591,0.509803950786591,0.588235318660736);
#263=PRE_DEFINED_MARKER('');
#264=COLOUR_RGB('',0.509803950786591,0.509803950786591,0.588235318660736);
#266=SURFACE_STYLE_FILL_AREA(#343);
#267=SURFACE_STYLE_FILL_AREA(#344);
#268=ORIENTED_EDGE('',*,*,#87,.T.);
#269=ORIENTED_EDGE('',*,*,#71,.F.);
#270=ORIENTED_EDGE('',*,*,#97,.T.);
#271=ORIENTED_EDGE('',*,*,#65,.F.);
#272=CARTESIAN_POINT('',(0.0,0.0,0.0));
#273=DIRECTION('',(-0.0,-0.0,-1.0));
#274=DIRECTION('',(1.0,0.0,0.0));
#275=CARTESIAN_POINT('',(0.0,0.0,0.0));
#276=DIRECTION('',(0.0,0.0,1.0));
#277=DIRECTION('',(1.0,0.0,0.0));
#278=CARTESIAN_POINT('',(0.0,0.0,4.0));
#279=DIRECTION('',(0.0,0.0,-1.0));
#280=DIRECTION('',(-1.0,0.0,0.0));
#281=CARTESIAN_POINT('',(0.0,0.0,4.0));
#282=DIRECTION('',(0.0,0.0,-1.0));
#283=DIRECTION('',(1.0,0.0,0.0));
#284=SURFACE_STYLE_FILL_AREA(#345);
#285=ORIENTED_EDGE('',*,*,#75,.T.);
#286=ORIENTED_EDGE('',*,*,#63,.T.);
#287=ORIENTED_EDGE('',*,*,#77,.T.);
#288=ORIENTED_EDGE('',*,*,#55,.T.);
#289=CARTESIAN_POINT('',(0.0,0.0,0.0));
#290=DIRECTION('',(-0.0,-0.0,-1.0));
#291=DIRECTION('',(1.0,0.0,0.0));
#292=SURFACE_STYLE_FILL_AREA(#346);
#293=ORIENTED_EDGE('',*,*,#87,.F.);
#294=ORIENTED_EDGE('',*,*,#73,.F.);
#295=ORIENTED_EDGE('',*,*,#97,.F.);
#296=ORIENTED_EDGE('',*,*,#79,.F.);
#297=CARTESIAN_POINT('',(0.0,0.0,0.0));
#298=DIRECTION('',(-0.0,-0.0,-1.0));
#299=DIRECTION('',(1.0,0.0,0.0));
#300=CARTESIAN_POINT('',(0.0,0.0,0.0));
#301=DIRECTION('',(0.0,0.0,1.0));
#302=DIRECTION('',(1.0,0.0,0.0));
#303=CARTESIAN_POINT('',(0.0,0.0,4.0));
#304=DIRECTION('',(0.0,0.0,-1.0));
#305=DIRECTION('',(1.0,0.0,0.0));
#306=DIRECTION('',(0.0,0.0,1.0));
#307=DIRECTION('',(-0.0,-0.0,-1.0));
#308=CARTESIAN_POINT('',(0.0,0.0,0.0));
#309=DIRECTION('',(0.0,0.0,1.0));
#310=DIRECTION('',(1.0,0.0,0.0));
#311=SURFACE_STYLE_FILL_AREA(#347);
#312=ORIENTED_EDGE('',*,*,#75,.F.);
#313=ORIENTED_EDGE('',*,*,#85,.T.);
#314=ORIENTED_EDGE('',*,*,#77,.F.);
#315=ORIENTED_EDGE('',*,*,#93,.T.);
#316=CARTESIAN_POINT('',(0.0,0.0,0.0));
#317=DIRECTION('',(-0.0,-0.0,-1.0));
#318=DIRECTION('',(1.0,0.0,0.0));
#319=SURFACE_STYLE_FILL_AREA(#348);
#320=ORIENTED_EDGE('',*,*,#73,.T.);
#321=ORIENTED_EDGE('',*,*,#65,.T.);
#322=ORIENTED_EDGE('',*,*,#93,.F.);
#323=ORIENTED_EDGE('',*,*,#63,.F.);
#324=CARTESIAN_POINT('',(0.0,0.0,4.0));
#325=DIRECTION('',(0.0,0.0,1.0));
#326=DIRECTION('',(1.0,0.0,0.0));
#327=CARTESIAN_POINT('',(0.0,0.0,0.0));
#328=DIRECTION('',(0.0,0.0,1.0));
#329=DIRECTION('',(1.0,0.0,0.0));
#330=DIRECTION('',(-0.0,0.0,-1.0));
#331=SURFACE_STYLE_FILL_AREA(#349);
#332=ORIENTED_EDGE('',*,*,#79,.T.);
#333=ORIENTED_EDGE('',*,*,#71,.T.);
#334=ORIENTED_EDGE('',*,*,#85,.F.);
#335=ORIENTED_EDGE('',*,*,#55,.F.);
#336=CARTESIAN_POINT('',(0.0,0.0,0.0));
#337=DIRECTION('',(0.0,0.0,1.0));
#338=DIRECTION('',(1.0,0.0,0.0));
#339=CARTESIAN_POINT('',(0.0,0.0,4.0));
#340=DIRECTION('',(0.0,0.0,-1.0));
#341=DIRECTION('',(-1.0,0.0,0.0));
#342=DIRECTION('',(-0.0,0.0,1.0));
#343=FILL_AREA_STYLE('',(#350));
#344=FILL_AREA_STYLE('',(#351));
#345=FILL_AREA_STYLE('',(#352));
#346=FILL_AREA_STYLE('',(#353));
#347=FILL_AREA_STYLE('',(#354));
#348=FILL_AREA_STYLE('',(#355));
#349=FILL_AREA_STYLE('',(#356));
#350=FILL_AREA_STYLE_COLOUR('',#357);
#351=FILL_AREA_STYLE_COLOUR('',#358);
#352=FILL_AREA_STYLE_COLOUR('',#359);
#353=FILL_AREA_STYLE_COLOUR('',#360);
#354=FILL_AREA_STYLE_COLOUR('',#361);
#355=FILL_AREA_STYLE_COLOUR('',#362);
#356=FILL_AREA_STYLE_COLOUR('',#363);
#357=COLOUR_RGB('',0.509803950786591,0.509803950786591,0.588235318660736);
#358=COLOUR_RGB('',0.509803950786591,0.509803950786591,0.588235318660736);
#359=COLOUR_RGB('',0.509803950786591,0.509803950786591,0.588235318660736);
#360=COLOUR_RGB('',0.509803950786591,0.509803950786591,0.588235318660736);
#361=COLOUR_RGB('',0.509803950786591,0.509803950786591,0.588235318660736);
#362=COLOUR_RGB('',0.509803950786591,0.509803950786591,0.588235318660736);
#363=COLOUR_RGB('',0.509803950786591,0.509803950786591,0.588235318660736);
ENDSEC;
END-ISO-10303-21;
