ISO-10303-21;
HEADER;
FILE_DESCRIPTION(('STEP AP214'),'1');
FILE_NAME(' ','  ',('TraceParts'),('TraceParts S.A.'),'XStep 1.0',' ',' ');
FILE_SCHEMA(('automotive_design'));
ENDSEC;
DATA;
#1=MECHANICAL_DESIGN_GEOMETRIC_PRESENTATION_REPRESENTATION(' ',(#10,#11,#12,#13,#14,#15,#16,#17,#18,#19,#20,#21,#22,#23,#24,#25,#26,#27,#28,#29,#30,#31,#32,#33,#34,#35,#36),#6);
#2=PRODUCT_DEFINITION_CONTEXT('',#37,'design');
#3=APPLICATION_PROTOCOL_DEFINITION('INTERNATIONAL STANDARD','automotive_design',1994,#37);
#4=PRODUCT_CATEGORY_RELATIONSHIP('NONE','NONE',#38,#39);
#5=SHAPE_DEFINITION_REPRESENTATION(#40,#41);
#6= (GEOMETRIC_REPRESENTATION_CONTEXT(3)GLOBAL_UNCERTAINTY_ASSIGNED_CONTEXT((#44))GLOBAL_UNIT_ASSIGNED_CONTEXT((#46,#47,#48))REPRESENTATION_CONTEXT('NONE','WORKSPACE'));
#10=STYLED_ITEM('',(#50),#51);
#11=STYLED_ITEM('',(#52),#53);
#12=STYLED_ITEM('',(#54),#55);
#13=STYLED_ITEM('',(#56),#57);
#14=STYLED_ITEM('',(#58),#59);
#15=STYLED_ITEM('',(#60),#61);
#16=STYLED_ITEM('',(#62),#63);
#17=STYLED_ITEM('',(#64),#65);
#18=STYLED_ITEM('',(#66),#67);
#19=STYLED_ITEM('',(#68),#69);
#20=STYLED_ITEM('',(#70),#71);
#21=STYLED_ITEM('',(#72),#73);
#22=STYLED_ITEM('',(#74),#75);
#23=STYLED_ITEM('',(#76),#77);
#24=STYLED_ITEM('',(#78),#79);
#25=STYLED_ITEM('',(#80),#81);
#26=STYLED_ITEM('',(#82),#83);
#27=STYLED_ITEM('',(#84),#85);
#28=STYLED_ITEM('',(#86),#87);
#29=STYLED_ITEM('',(#88),#89);
#30=STYLED_ITEM('',(#90),#91);
#31=STYLED_ITEM('',(#92),#93);
#32=STYLED_ITEM('',(#94),#95);
#33=STYLED_ITEM('',(#96),#97);
#34=STYLED_ITEM('',(#98),#99);
#35=STYLED_ITEM('',(#100),#101);
#36=STYLED_ITEM('',(#102),#103);
#37=APPLICATION_CONTEXT(' ');
#38=PRODUCT_CATEGORY('part','NONE');
#39=PRODUCT_RELATED_PRODUCT_CATEGORY('detail',' ',(#104));
#40=PRODUCT_DEFINITION_SHAPE('NONE','NONE',#105);
#41=ADVANCED_BREP_SHAPE_REPRESENTATION('1',(#103,#106),#6);
#44=UNCERTAINTY_MEASURE_WITH_UNIT(LENGTH_MEASURE(1.0E-006),#46,'','');
#46= (CONVERSION_BASED_UNIT('MILLIMETRE',#109)LENGTH_UNIT()NAMED_UNIT(#112));
#47= (NAMED_UNIT(#114)PLANE_ANGLE_UNIT()SI_UNIT($,.RADIAN.));
#48= (NAMED_UNIT(#114)SOLID_ANGLE_UNIT()SI_UNIT($,.STERADIAN.));
#50=PRESENTATION_STYLE_ASSIGNMENT((#120));
#51=EDGE_CURVE('',#59,#67,#121,.T.);
#52=PRESENTATION_STYLE_ASSIGNMENT((#122));
#53=ADVANCED_FACE('',(#123),#124,.F.);
#54=PRESENTATION_STYLE_ASSIGNMENT((#125));
#55=EDGE_CURVE('',#67,#59,#126,.T.);
#56=PRESENTATION_STYLE_ASSIGNMENT((#127));
#57=ADVANCED_FACE('',(#128),#129,.T.);
#58=PRESENTATION_STYLE_ASSIGNMENT((#130));
#59=VERTEX_POINT('',#131);
#60=PRESENTATION_STYLE_ASSIGNMENT((#132));
#61=EDGE_CURVE('',#101,#81,#133,.T.);
#62=PRESENTATION_STYLE_ASSIGNMENT((#134));
#63=ADVANCED_FACE('',(#135),#136,.F.);
#64=PRESENTATION_STYLE_ASSIGNMENT((#137));
#65=ADVANCED_FACE('',(#138,#139),#140,.T.);
#66=PRESENTATION_STYLE_ASSIGNMENT((#141));
#67=VERTEX_POINT('',#142);
#68=PRESENTATION_STYLE_ASSIGNMENT((#143));
#69=EDGE_CURVE('',#93,#91,#144,.T.);
#70=PRESENTATION_STYLE_ASSIGNMENT((#145));
#71=EDGE_CURVE('',#91,#93,#146,.T.);
#72=PRESENTATION_STYLE_ASSIGNMENT((#147));
#73=VERTEX_POINT('',#148);
#74=PRESENTATION_STYLE_ASSIGNMENT((#149));
#75=EDGE_CURVE('',#95,#73,#150,.T.);
#76=PRESENTATION_STYLE_ASSIGNMENT((#151));
#77=EDGE_CURVE('',#73,#95,#152,.T.);
#78=PRESENTATION_STYLE_ASSIGNMENT((#153));
#79=EDGE_CURVE('',#91,#73,#154,.T.);
#80=PRESENTATION_STYLE_ASSIGNMENT((#155));
#81=VERTEX_POINT('',#156);
#82=PRESENTATION_STYLE_ASSIGNMENT((#157));
#83=ADVANCED_FACE('',(#158),#159,.T.);
#84=PRESENTATION_STYLE_ASSIGNMENT((#160));
#85=EDGE_CURVE('',#59,#101,#161,.T.);
#86=PRESENTATION_STYLE_ASSIGNMENT((#162));
#87=EDGE_CURVE('',#81,#101,#163,.T.);
#88=PRESENTATION_STYLE_ASSIGNMENT((#164));
#89=EDGE_CURVE('',#95,#93,#165,.T.);
#90=PRESENTATION_STYLE_ASSIGNMENT((#166));
#91=VERTEX_POINT('',#167);
#92=PRESENTATION_STYLE_ASSIGNMENT((#168));
#93=VERTEX_POINT('',#169);
#94=PRESENTATION_STYLE_ASSIGNMENT((#170));
#95=VERTEX_POINT('',#171);
#96=PRESENTATION_STYLE_ASSIGNMENT((#172));
#97=EDGE_CURVE('',#81,#67,#173,.T.);
#98=PRESENTATION_STYLE_ASSIGNMENT((#174));
#99=ADVANCED_FACE('',(#175,#176),#177,.F.);
#100=PRESENTATION_STYLE_ASSIGNMENT((#178));
#101=VERTEX_POINT('',#179);
#102=PRESENTATION_STYLE_ASSIGNMENT((#180));
#103=MANIFOLD_SOLID_BREP('1',#181);
#104=PRODUCT('1','1','PART-1-DESC',(#182));
#105=PRODUCT_DEFINITION('NONE','NONE',#183,#2);
#106=AXIS2_PLACEMENT_3D('',#184,#185,#186);
#109=LENGTH_MEASURE_WITH_UNIT(LENGTH_MEASURE(1.0),#187);
#112=DIMENSIONAL_EXPONENTS(1.0,0.0,0.0,0.0,0.0,0.0,0.0);
#114=DIMENSIONAL_EXPONENTS(0.0,0.0,0.0,0.0,0.0,0.0,0.0);
#120=CURVE_STYLE('',#188,POSITIVE_LENGTH_MEASURE(1.0E-006),#189);
#121=CIRCLE('',#190,19.75);
#122=SURFACE_STYLE_USAGE(.BOTH.,#191);
#123=FACE_OUTER_BOUND('',#192,.T.);
#124=CYLINDRICAL_SURFACE('',#193,8.75);
#125=CURVE_STYLE('',#194,POSITIVE_LENGTH_MEASURE(1.0E-006),#195);
#126=CIRCLE('',#196,19.75);
#127=SURFACE_STYLE_USAGE(.BOTH.,#197);
#128=FACE_OUTER_BOUND('',#198,.T.);
#129=CYLINDRICAL_SURFACE('',#199,19.75);
#130=POINT_STYLE(' ',#200,POSITIVE_LENGTH_MEASURE(1.0E-006),#201);
#131=CARTESIAN_POINT('',(19.75,0.0,0.0));
#132=CURVE_STYLE('',#202,POSITIVE_LENGTH_MEASURE(1.0E-006),#203);
#133=CIRCLE('',#204,19.75);
#134=SURFACE_STYLE_USAGE(.BOTH.,#205);
#135=FACE_OUTER_BOUND('',#206,.T.);
#136=CYLINDRICAL_SURFACE('',#207,8.75);
#137=SURFACE_STYLE_USAGE(.BOTH.,#208);
#138=FACE_BOUND('',#209,.T.);
#139=FACE_OUTER_BOUND('',#210,.T.);
#140=PLANE('',#211);
#141=POINT_STYLE(' ',#212,POSITIVE_LENGTH_MEASURE(1.0E-006),#213);
#142=CARTESIAN_POINT('',(-19.75,2.4185975487992E-015,0.0));
#143=CURVE_STYLE('',#214,POSITIVE_LENGTH_MEASURE(1.0E-006),#215);
#144=CIRCLE('',#216,8.75);
#145=CURVE_STYLE('',#217,POSITIVE_LENGTH_MEASURE(1.0E-006),#218);
#146=CIRCLE('',#219,8.75);
#147=POINT_STYLE(' ',#220,POSITIVE_LENGTH_MEASURE(1.0E-006),#221);
#148=CARTESIAN_POINT('',(8.75,0.0,0.0));
#149=CURVE_STYLE('',#222,POSITIVE_LENGTH_MEASURE(1.0E-006),#223);
#150=CIRCLE('',#224,8.75);
#151=CURVE_STYLE('',#225,POSITIVE_LENGTH_MEASURE(1.0E-006),#226);
#152=CIRCLE('',#227,8.75);
#153=CURVE_STYLE('',#228,POSITIVE_LENGTH_MEASURE(1.0E-006),#229);
#154=LINE('',#230,#231);
#155=POINT_STYLE(' ',#232,POSITIVE_LENGTH_MEASURE(1.0E-006),#233);
#156=CARTESIAN_POINT('',(-19.75,0.0,4.0));
#157=SURFACE_STYLE_USAGE(.BOTH.,#234);
#158=FACE_OUTER_BOUND('',#235,.T.);
#159=CYLINDRICAL_SURFACE('',#236,19.75);
#160=CURVE_STYLE('',#237,POSITIVE_LENGTH_MEASURE(1.0E-006),#238);
#161=LINE('',#239,#240);
#162=CURVE_STYLE('',#241,POSITIVE_LENGTH_MEASURE(1.0E-006),#242);
#163=CIRCLE('',#243,19.75);
#164=CURVE_STYLE('',#244,POSITIVE_LENGTH_MEASURE(1.0E-006),#245);
#165=LINE('',#246,#247);
#166=POINT_STYLE(' ',#248,POSITIVE_LENGTH_MEASURE(1.0E-006),#249);
#167=CARTESIAN_POINT('',(8.75,-1.07153055959458E-015,4.0));
#168=POINT_STYLE(' ',#250,POSITIVE_LENGTH_MEASURE(1.0E-006),#251);
#169=CARTESIAN_POINT('',(-8.75,0.0,4.0));
#170=POINT_STYLE(' ',#252,POSITIVE_LENGTH_MEASURE(1.0E-006),#253);
#171=CARTESIAN_POINT('',(-8.75,1.07153055959458E-015,0.0));
#172=CURVE_STYLE('',#254,POSITIVE_LENGTH_MEASURE(1.0E-006),#255);
#173=LINE('',#256,#257);
#174=SURFACE_STYLE_USAGE(.BOTH.,#258);
#175=FACE_BOUND('',#259,.T.);
#176=FACE_OUTER_BOUND('',#260,.T.);
#177=PLANE('',#261);
#178=POINT_STYLE(' ',#262,POSITIVE_LENGTH_MEASURE(1.0E-006),#263);
#179=CARTESIAN_POINT('',(19.75,-2.4185975487992E-015,4.0));
#180=SURFACE_STYLE_USAGE(.BOTH.,#264);
#181=CLOSED_SHELL('',(#83,#53,#63,#57,#99,#65));
#182=PRODUCT_CONTEXT('',#37,'mechanical');
#183=PRODUCT_DEFINITION_FORMATION_WITH_SPECIFIED_SOURCE(' ','NONE',#104,.NOT_KNOWN.);
#184=CARTESIAN_POINT('',(0.0,0.0,0.0));
#185=DIRECTION('',(0.0,0.0,1.0));
#186=DIRECTION('',(1.0,0.0,0.0));
#187= (NAMED_UNIT(#112)LENGTH_UNIT()SI_UNIT(.MILLI.,.METRE.));
#188=DRAUGHTING_PRE_DEFINED_CURVE_FONT('continuous');
#189=COLOUR_RGB('',0.509803950786591,0.509803950786591,0.588235318660736);
#190=AXIS2_PLACEMENT_3D('',#266,#267,#268);
#191=SURFACE_SIDE_STYLE('',(#269));
#192=EDGE_LOOP('',(#270,#271,#272,#273));
#193=AXIS2_PLACEMENT_3D('',#274,#275,#276);
#194=DRAUGHTING_PRE_DEFINED_CURVE_FONT('continuous');
#195=COLOUR_RGB('',0.509803950786591,0.509803950786591,0.588235318660736);
#196=AXIS2_PLACEMENT_3D('',#277,#278,#279);
#197=SURFACE_SIDE_STYLE('',(#280));
#198=EDGE_LOOP('',(#281,#282,#283,#284));
#199=AXIS2_PLACEMENT_3D('',#285,#286,#287);
#200=PRE_DEFINED_MARKER('');
#201=COLOUR_RGB('',0.509803950786591,0.509803950786591,0.588235318660736);
#202=DRAUGHTING_PRE_DEFINED_CURVE_FONT('continuous');
#203=COLOUR_RGB('',0.509803950786591,0.509803950786591,0.588235318660736);
#204=AXIS2_PLACEMENT_3D('',#288,#289,#290);
#205=SURFACE_SIDE_STYLE('',(#291));
#206=EDGE_LOOP('',(#292,#293,#294,#295));
#207=AXIS2_PLACEMENT_3D('',#296,#297,#298);
#208=SURFACE_SIDE_STYLE('',(#299));
#209=EDGE_LOOP('',(#300,#301));
#210=EDGE_LOOP('',(#302,#303));
#211=AXIS2_PLACEMENT_3D('',#304,#305,#306);
#212=PRE_DEFINED_MARKER('');
#213=COLOUR_RGB('',0.509803950786591,0.509803950786591,0.588235318660736);
#214=DRAUGHTING_PRE_DEFINED_CURVE_FONT('continuous');
#215=COLOUR_RGB('',0.509803950786591,0.509803950786591,0.588235318660736);
#216=AXIS2_PLACEMENT_3D('',#307,#308,#309);
#217=DRAUGHTING_PRE_DEFINED_CURVE_FONT('continuous');
#218=COLOUR_RGB('',0.509803950786591,0.509803950786591,0.588235318660736);
#219=AXIS2_PLACEMENT_3D('',#310,#311,#312);
#220=PRE_DEFINED_MARKER('');
#221=COLOUR_RGB('',0.509803950786591,0.509803950786591,0.588235318660736);
#222=DRAUGHTING_PRE_DEFINED_CURVE_FONT('continuous');
#223=COLOUR_RGB('',0.509803950786591,0.509803950786591,0.588235318660736);
#224=AXIS2_PLACEMENT_3D('',#313,#314,#315);
#225=DRAUGHTING_PRE_DEFINED_CURVE_FONT('continuous');
#226=COLOUR_RGB('',0.509803950786591,0.509803950786591,0.588235318660736);
#227=AXIS2_PLACEMENT_3D('',#316,#317,#318);
#228=DRAUGHTING_PRE_DEFINED_CURVE_FONT('continuous');
#229=COLOUR_RGB('',0.509803950786591,0.509803950786591,0.588235318660736);
#230=CARTESIAN_POINT('',(8.75,-1.07153055959458E-015,0.0));
#231=VECTOR('',#319,1.0);
#232=PRE_DEFINED_MARKER('');
#233=COLOUR_RGB('',0.509803950786591,0.509803950786591,0.588235318660736);
#234=SURFACE_SIDE_STYLE('',(#320));
#235=EDGE_LOOP('',(#321,#322,#323,#324));
#236=AXIS2_PLACEMENT_3D('',#325,#326,#327);
#237=DRAUGHTING_PRE_DEFINED_CURVE_FONT('continuous');
#238=COLOUR_RGB('',0.509803950786591,0.509803950786591,0.588235318660736);
#239=CARTESIAN_POINT('',(19.75,-2.4185975487992E-015,0.0));
#240=VECTOR('',#328,1.0);
#241=DRAUGHTING_PRE_DEFINED_CURVE_FONT('continuous');
#242=COLOUR_RGB('',0.509803950786591,0.509803950786591,0.588235318660736);
#243=AXIS2_PLACEMENT_3D('',#329,#330,#331);
#244=DRAUGHTING_PRE_DEFINED_CURVE_FONT('continuous');
#245=COLOUR_RGB('',0.509803950786591,0.509803950786591,0.588235318660736);
#246=CARTESIAN_POINT('',(-8.75,1.07153055959458E-015,0.0));
#247=VECTOR('',#332,1.0);
#248=PRE_DEFINED_MARKER('');
#249=COLOUR_RGB('',0.509803950786591,0.509803950786591,0.588235318660736);
#250=PRE_DEFINED_MARKER('');
#251=COLOUR_RGB('',0.509803950786591,0.509803950786591,0.588235318660736);
#252=PRE_DEFINED_MARKER('');
#253=COLOUR_RGB('',0.509803950786591,0.509803950786591,0.588235318660736);
#254=DRAUGHTING_PRE_DEFINED_CURVE_FONT('continuous');
#255=COLOUR_RGB('',0.509803950786591,0.509803950786591,0.588235318660736);
#256=CARTESIAN_POINT('',(-19.75,2.4185975487992E-015,0.0));
#257=VECTOR('',#333,1.0);
#258=SURFACE_SIDE_STYLE('',(#334));
#259=EDGE_LOOP('',(#335,#336));
#260=EDGE_LOOP('',(#337,#338));
#261=AXIS2_PLACEMENT_3D('',#339,#340,#341);
#262=PRE_DEFINED_MARKER('');
#263=COLOUR_RGB('',0.509803950786591,0.509803950786591,0.588235318660736);
#264=SURFACE_SIDE_STYLE('',(#342));
#266=CARTESIAN_POINT('',(0.0,0.0,0.0));
#267=DIRECTION('',(0.0,0.0,1.0));
#268=DIRECTION('',(1.0,0.0,0.0));
#269=SURFACE_STYLE_FILL_AREA(#343);
#270=ORIENTED_EDGE('',*,*,#79,.F.);
#271=ORIENTED_EDGE('',*,*,#69,.F.);
#272=ORIENTED_EDGE('',*,*,#89,.F.);
#273=ORIENTED_EDGE('',*,*,#77,.F.);
#274=CARTESIAN_POINT('',(0.0,0.0,0.0));
#275=DIRECTION('',(-0.0,-0.0,-1.0));
#276=DIRECTION('',(1.0,0.0,0.0));
#277=CARTESIAN_POINT('',(0.0,0.0,0.0));
#278=DIRECTION('',(0.0,0.0,1.0));
#279=DIRECTION('',(1.0,0.0,0.0));
#280=SURFACE_STYLE_FILL_AREA(#344);
#281=ORIENTED_EDGE('',*,*,#85,.T.);
#282=ORIENTED_EDGE('',*,*,#61,.T.);
#283=ORIENTED_EDGE('',*,*,#97,.T.);
#284=ORIENTED_EDGE('',*,*,#55,.T.);
#285=CARTESIAN_POINT('',(0.0,0.0,0.0));
#286=DIRECTION('',(-0.0,-0.0,-1.0));
#287=DIRECTION('',(1.0,0.0,0.0));
#288=CARTESIAN_POINT('',(0.0,0.0,4.0));
#289=DIRECTION('',(0.0,0.0,-1.0));
#290=DIRECTION('',(-1.0,0.0,0.0));
#291=SURFACE_STYLE_FILL_AREA(#345);
#292=ORIENTED_EDGE('',*,*,#79,.T.);
#293=ORIENTED_EDGE('',*,*,#75,.F.);
#294=ORIENTED_EDGE('',*,*,#89,.T.);
#295=ORIENTED_EDGE('',*,*,#71,.F.);
#296=CARTESIAN_POINT('',(0.0,0.0,0.0));
#297=DIRECTION('',(-0.0,-0.0,-1.0));
#298=DIRECTION('',(1.0,0.0,0.0));
#299=SURFACE_STYLE_FILL_AREA(#346);
#300=ORIENTED_EDGE('',*,*,#69,.T.);
#301=ORIENTED_EDGE('',*,*,#71,.T.);
#302=ORIENTED_EDGE('',*,*,#87,.F.);
#303=ORIENTED_EDGE('',*,*,#61,.F.);
#304=CARTESIAN_POINT('',(0.0,0.0,4.0));
#305=DIRECTION('',(0.0,0.0,1.0));
#306=DIRECTION('',(1.0,0.0,0.0));
#307=CARTESIAN_POINT('',(0.0,0.0,4.0));
#308=DIRECTION('',(0.0,0.0,-1.0));
#309=DIRECTION('',(1.0,0.0,0.0));
#310=CARTESIAN_POINT('',(0.0,0.0,4.0));
#311=DIRECTION('',(0.0,0.0,-1.0));
#312=DIRECTION('',(1.0,0.0,0.0));
#313=CARTESIAN_POINT('',(0.0,0.0,0.0));
#314=DIRECTION('',(0.0,0.0,1.0));
#315=DIRECTION('',(1.0,0.0,0.0));
#316=CARTESIAN_POINT('',(0.0,0.0,0.0));
#317=DIRECTION('',(0.0,0.0,1.0));
#318=DIRECTION('',(1.0,0.0,0.0));
#319=DIRECTION('',(-0.0,0.0,-1.0));
#320=SURFACE_STYLE_FILL_AREA(#347);
#321=ORIENTED_EDGE('',*,*,#85,.F.);
#322=ORIENTED_EDGE('',*,*,#51,.T.);
#323=ORIENTED_EDGE('',*,*,#97,.F.);
#324=ORIENTED_EDGE('',*,*,#87,.T.);
#325=CARTESIAN_POINT('',(0.0,0.0,0.0));
#326=DIRECTION('',(-0.0,-0.0,-1.0));
#327=DIRECTION('',(1.0,0.0,0.0));
#328=DIRECTION('',(0.0,0.0,1.0));
#329=CARTESIAN_POINT('',(0.0,0.0,4.0));
#330=DIRECTION('',(0.0,0.0,-1.0));
#331=DIRECTION('',(-1.0,0.0,0.0));
#332=DIRECTION('',(-0.0,0.0,1.0));
#333=DIRECTION('',(-0.0,-0.0,-1.0));
#334=SURFACE_STYLE_FILL_AREA(#348);
#335=ORIENTED_EDGE('',*,*,#77,.T.);
#336=ORIENTED_EDGE('',*,*,#75,.T.);
#337=ORIENTED_EDGE('',*,*,#51,.F.);
#338=ORIENTED_EDGE('',*,*,#55,.F.);
#339=CARTESIAN_POINT('',(0.0,0.0,0.0));
#340=DIRECTION('',(0.0,0.0,1.0));
#341=DIRECTION('',(1.0,0.0,0.0));
#342=SURFACE_STYLE_FILL_AREA(#349);
#343=FILL_AREA_STYLE('',(#350));
#344=FILL_AREA_STYLE('',(#351));
#345=FILL_AREA_STYLE('',(#352));
#346=FILL_AREA_STYLE('',(#353));
#347=FILL_AREA_STYLE('',(#354));
#348=FILL_AREA_STYLE('',(#355));
#349=FILL_AREA_STYLE('',(#356));
#350=FILL_AREA_STYLE_COLOUR('',#357);
#351=FILL_AREA_STYLE_COLOUR('',#358);
#352=FILL_AREA_STYLE_COLOUR('',#359);
#353=FILL_AREA_STYLE_COLOUR('',#360);
#354=FILL_AREA_STYLE_COLOUR('',#361);
#355=FILL_AREA_STYLE_COLOUR('',#362);
#356=FILL_AREA_STYLE_COLOUR('',#363);
#357=COLOUR_RGB('',0.509803950786591,0.509803950786591,0.588235318660736);
#358=COLOUR_RGB('',0.509803950786591,0.509803950786591,0.588235318660736);
#359=COLOUR_RGB('',0.509803950786591,0.509803950786591,0.588235318660736);
#360=COLOUR_RGB('',0.509803950786591,0.509803950786591,0.588235318660736);
#361=COLOUR_RGB('',0.509803950786591,0.509803950786591,0.588235318660736);
#362=COLOUR_RGB('',0.509803950786591,0.509803950786591,0.588235318660736);
#363=COLOUR_RGB('',0.509803950786591,0.509803950786591,0.588235318660736);
ENDSEC;
END-ISO-10303-21;
