ISO-10303-21;
HEADER;
FILE_DESCRIPTION(('STEP AP214'),'1');
FILE_NAME(' ','  ',('TraceParts'),('TraceParts S.A.'),'XStep 1.0',' ',' ');
FILE_SCHEMA(('automotive_design'));
ENDSEC;
DATA;
#1=MECHANICAL_DESIGN_GEOMETRIC_PRESENTATION_REPRESENTATION(' ',(#10,#11,#12,#13,#14,#15,#16,#17,#18,#19,#20,#21,#22,#23,#24,#25,#26,#27,#28,#29,#30,#31,#32,#33,#34,#35,#36),#6);
#2=PRODUCT_DEFINITION_CONTEXT('',#37,'design');
#3=APPLICATION_PROTOCOL_DEFINITION('INTERNATIONAL STANDARD','automotive_design',1994,#37);
#4=PRODUCT_CATEGORY_RELATIONSHIP('NONE','NONE',#38,#39);
#5=SHAPE_DEFINITION_REPRESENTATION(#40,#41);
#6= (GEOMETRIC_REPRESENTATION_CONTEXT(3)GLOBAL_UNCERTAINTY_ASSIGNED_CONTEXT((#44))GLOBAL_UNIT_ASSIGNED_CONTEXT((#46,#47,#48))REPRESENTATION_CONTEXT('NONE','WORKSPACE'));
#10=STYLED_ITEM('',(#50),#51);
#11=STYLED_ITEM('',(#52),#53);
#12=STYLED_ITEM('',(#54),#55);
#13=STYLED_ITEM('',(#56),#57);
#14=STYLED_ITEM('',(#58),#59);
#15=STYLED_ITEM('',(#60),#61);
#16=STYLED_ITEM('',(#62),#63);
#17=STYLED_ITEM('',(#64),#65);
#18=STYLED_ITEM('',(#66),#67);
#19=STYLED_ITEM('',(#68),#69);
#20=STYLED_ITEM('',(#70),#71);
#21=STYLED_ITEM('',(#72),#73);
#22=STYLED_ITEM('',(#74),#75);
#23=STYLED_ITEM('',(#76),#77);
#24=STYLED_ITEM('',(#78),#79);
#25=STYLED_ITEM('',(#80),#81);
#26=STYLED_ITEM('',(#82),#83);
#27=STYLED_ITEM('',(#84),#85);
#28=STYLED_ITEM('',(#86),#87);
#29=STYLED_ITEM('',(#88),#89);
#30=STYLED_ITEM('',(#90),#91);
#31=STYLED_ITEM('',(#92),#93);
#32=STYLED_ITEM('',(#94),#95);
#33=STYLED_ITEM('',(#96),#97);
#34=STYLED_ITEM('',(#98),#99);
#35=STYLED_ITEM('',(#100),#101);
#36=STYLED_ITEM('',(#102),#103);
#37=APPLICATION_CONTEXT(' ');
#38=PRODUCT_CATEGORY('part','NONE');
#39=PRODUCT_RELATED_PRODUCT_CATEGORY('detail',' ',(#104));
#40=PRODUCT_DEFINITION_SHAPE('NONE','NONE',#105);
#41=ADVANCED_BREP_SHAPE_REPRESENTATION('1',(#59,#106),#6);
#44=UNCERTAINTY_MEASURE_WITH_UNIT(LENGTH_MEASURE(1.0E-006),#46,'','');
#46= (CONVERSION_BASED_UNIT('MILLIMETRE',#109)LENGTH_UNIT()NAMED_UNIT(#112));
#47= (NAMED_UNIT(#114)PLANE_ANGLE_UNIT()SI_UNIT($,.RADIAN.));
#48= (NAMED_UNIT(#114)SOLID_ANGLE_UNIT()SI_UNIT($,.STERADIAN.));
#50=PRESENTATION_STYLE_ASSIGNMENT((#120));
#51=EDGE_CURVE('',#55,#97,#121,.T.);
#52=PRESENTATION_STYLE_ASSIGNMENT((#122));
#53=EDGE_CURVE('',#73,#55,#123,.T.);
#54=PRESENTATION_STYLE_ASSIGNMENT((#124));
#55=VERTEX_POINT('',#125);
#56=PRESENTATION_STYLE_ASSIGNMENT((#126));
#57=EDGE_CURVE('',#97,#85,#127,.T.);
#58=PRESENTATION_STYLE_ASSIGNMENT((#128));
#59=MANIFOLD_SOLID_BREP('1',#129);
#60=PRESENTATION_STYLE_ASSIGNMENT((#130));
#61=EDGE_CURVE('',#77,#65,#131,.T.);
#62=PRESENTATION_STYLE_ASSIGNMENT((#132));
#63=EDGE_CURVE('',#73,#85,#133,.T.);
#64=PRESENTATION_STYLE_ASSIGNMENT((#134));
#65=VERTEX_POINT('',#135);
#66=PRESENTATION_STYLE_ASSIGNMENT((#136));
#67=ADVANCED_FACE('',(#137,#138),#139,.T.);
#68=PRESENTATION_STYLE_ASSIGNMENT((#140));
#69=VERTEX_POINT('',#141);
#70=PRESENTATION_STYLE_ASSIGNMENT((#142));
#71=ADVANCED_FACE('',(#143),#144,.T.);
#72=PRESENTATION_STYLE_ASSIGNMENT((#145));
#73=VERTEX_POINT('',#146);
#74=PRESENTATION_STYLE_ASSIGNMENT((#147));
#75=ADVANCED_FACE('',(#148),#149,.T.);
#76=PRESENTATION_STYLE_ASSIGNMENT((#150));
#77=VERTEX_POINT('',#151);
#78=PRESENTATION_STYLE_ASSIGNMENT((#152));
#79=EDGE_CURVE('',#81,#69,#153,.T.);
#80=PRESENTATION_STYLE_ASSIGNMENT((#154));
#81=VERTEX_POINT('',#155);
#82=PRESENTATION_STYLE_ASSIGNMENT((#156));
#83=EDGE_CURVE('',#85,#73,#157,.T.);
#84=PRESENTATION_STYLE_ASSIGNMENT((#158));
#85=VERTEX_POINT('',#159);
#86=PRESENTATION_STYLE_ASSIGNMENT((#160));
#87=EDGE_CURVE('',#69,#65,#161,.T.);
#88=PRESENTATION_STYLE_ASSIGNMENT((#162));
#89=ADVANCED_FACE('',(#163),#164,.F.);
#90=PRESENTATION_STYLE_ASSIGNMENT((#165));
#91=ADVANCED_FACE('',(#166,#167),#168,.F.);
#92=PRESENTATION_STYLE_ASSIGNMENT((#169));
#93=EDGE_CURVE('',#65,#77,#170,.T.);
#94=PRESENTATION_STYLE_ASSIGNMENT((#171));
#95=ADVANCED_FACE('',(#172),#173,.F.);
#96=PRESENTATION_STYLE_ASSIGNMENT((#174));
#97=VERTEX_POINT('',#175);
#98=PRESENTATION_STYLE_ASSIGNMENT((#176));
#99=EDGE_CURVE('',#69,#81,#177,.T.);
#100=PRESENTATION_STYLE_ASSIGNMENT((#178));
#101=EDGE_CURVE('',#97,#55,#179,.T.);
#102=PRESENTATION_STYLE_ASSIGNMENT((#180));
#103=EDGE_CURVE('',#77,#81,#181,.T.);
#104=PRODUCT('1','1','PART-1-DESC',(#182));
#105=PRODUCT_DEFINITION('NONE','NONE',#183,#2);
#106=AXIS2_PLACEMENT_3D('',#184,#185,#186);
#109=LENGTH_MEASURE_WITH_UNIT(LENGTH_MEASURE(1.0),#187);
#112=DIMENSIONAL_EXPONENTS(1.0,0.0,0.0,0.0,0.0,0.0,0.0);
#114=DIMENSIONAL_EXPONENTS(0.0,0.0,0.0,0.0,0.0,0.0,0.0);
#120=CURVE_STYLE('',#188,POSITIVE_LENGTH_MEASURE(1.0E-006),#189);
#121=CIRCLE('',#190,19.75);
#122=CURVE_STYLE('',#191,POSITIVE_LENGTH_MEASURE(1.0E-006),#192);
#123=LINE('',#193,#194);
#124=POINT_STYLE(' ',#195,POSITIVE_LENGTH_MEASURE(1.0E-006),#196);
#125=CARTESIAN_POINT('',(19.75,-2.4185975487992E-015,3.0));
#126=CURVE_STYLE('',#197,POSITIVE_LENGTH_MEASURE(1.0E-006),#198);
#127=LINE('',#199,#200);
#128=SURFACE_STYLE_USAGE(.BOTH.,#201);
#129=CLOSED_SHELL('',(#71,#89,#95,#75,#91,#67));
#130=CURVE_STYLE('',#202,POSITIVE_LENGTH_MEASURE(1.0E-006),#203);
#131=CIRCLE('',#204,8.75);
#132=CURVE_STYLE('',#205,POSITIVE_LENGTH_MEASURE(1.0E-006),#206);
#133=CIRCLE('',#207,19.75);
#134=POINT_STYLE(' ',#208,POSITIVE_LENGTH_MEASURE(1.0E-006),#209);
#135=CARTESIAN_POINT('',(8.75,0.0,0.0));
#136=SURFACE_STYLE_USAGE(.BOTH.,#210);
#137=FACE_BOUND('',#211,.T.);
#138=FACE_OUTER_BOUND('',#212,.T.);
#139=PLANE('',#213);
#140=POINT_STYLE(' ',#214,POSITIVE_LENGTH_MEASURE(1.0E-006),#215);
#141=CARTESIAN_POINT('',(8.75,-1.07153055959458E-015,3.0));
#142=SURFACE_STYLE_USAGE(.BOTH.,#216);
#143=FACE_OUTER_BOUND('',#217,.T.);
#144=CYLINDRICAL_SURFACE('',#218,19.75);
#145=POINT_STYLE(' ',#219,POSITIVE_LENGTH_MEASURE(1.0E-006),#220);
#146=CARTESIAN_POINT('',(19.75,0.0,0.0));
#147=SURFACE_STYLE_USAGE(.BOTH.,#221);
#148=FACE_OUTER_BOUND('',#222,.T.);
#149=CYLINDRICAL_SURFACE('',#223,19.75);
#150=POINT_STYLE(' ',#224,POSITIVE_LENGTH_MEASURE(1.0E-006),#225);
#151=CARTESIAN_POINT('',(-8.75,1.07153055959458E-015,0.0));
#152=CURVE_STYLE('',#226,POSITIVE_LENGTH_MEASURE(1.0E-006),#227);
#153=CIRCLE('',#228,8.75);
#154=POINT_STYLE(' ',#229,POSITIVE_LENGTH_MEASURE(1.0E-006),#230);
#155=CARTESIAN_POINT('',(-8.75,0.0,3.0));
#156=CURVE_STYLE('',#231,POSITIVE_LENGTH_MEASURE(1.0E-006),#232);
#157=CIRCLE('',#233,19.75);
#158=POINT_STYLE(' ',#234,POSITIVE_LENGTH_MEASURE(1.0E-006),#235);
#159=CARTESIAN_POINT('',(-19.75,2.4185975487992E-015,0.0));
#160=CURVE_STYLE('',#236,POSITIVE_LENGTH_MEASURE(1.0E-006),#237);
#161=LINE('',#238,#239);
#162=SURFACE_STYLE_USAGE(.BOTH.,#240);
#163=FACE_OUTER_BOUND('',#241,.T.);
#164=CYLINDRICAL_SURFACE('',#242,8.75);
#165=SURFACE_STYLE_USAGE(.BOTH.,#243);
#166=FACE_BOUND('',#244,.T.);
#167=FACE_OUTER_BOUND('',#245,.T.);
#168=PLANE('',#246);
#169=CURVE_STYLE('',#247,POSITIVE_LENGTH_MEASURE(1.0E-006),#248);
#170=CIRCLE('',#249,8.75);
#171=SURFACE_STYLE_USAGE(.BOTH.,#250);
#172=FACE_OUTER_BOUND('',#251,.T.);
#173=CYLINDRICAL_SURFACE('',#252,8.75);
#174=POINT_STYLE(' ',#253,POSITIVE_LENGTH_MEASURE(1.0E-006),#254);
#175=CARTESIAN_POINT('',(-19.75,0.0,3.0));
#176=CURVE_STYLE('',#255,POSITIVE_LENGTH_MEASURE(1.0E-006),#256);
#177=CIRCLE('',#257,8.75);
#178=CURVE_STYLE('',#258,POSITIVE_LENGTH_MEASURE(1.0E-006),#259);
#179=CIRCLE('',#260,19.75);
#180=CURVE_STYLE('',#261,POSITIVE_LENGTH_MEASURE(1.0E-006),#262);
#181=LINE('',#263,#264);
#182=PRODUCT_CONTEXT('',#37,'mechanical');
#183=PRODUCT_DEFINITION_FORMATION_WITH_SPECIFIED_SOURCE(' ','NONE',#104,.NOT_KNOWN.);
#184=CARTESIAN_POINT('',(0.0,0.0,0.0));
#185=DIRECTION('',(0.0,0.0,1.0));
#186=DIRECTION('',(1.0,0.0,0.0));
#187= (NAMED_UNIT(#112)LENGTH_UNIT()SI_UNIT(.MILLI.,.METRE.));
#188=DRAUGHTING_PRE_DEFINED_CURVE_FONT('continuous');
#189=COLOUR_RGB('',0.509803950786591,0.509803950786591,0.588235318660736);
#190=AXIS2_PLACEMENT_3D('',#266,#267,#268);
#191=DRAUGHTING_PRE_DEFINED_CURVE_FONT('continuous');
#192=COLOUR_RGB('',0.509803950786591,0.509803950786591,0.588235318660736);
#193=CARTESIAN_POINT('',(19.75,-2.4185975487992E-015,0.0));
#194=VECTOR('',#269,1.0);
#195=PRE_DEFINED_MARKER('');
#196=COLOUR_RGB('',0.509803950786591,0.509803950786591,0.588235318660736);
#197=DRAUGHTING_PRE_DEFINED_CURVE_FONT('continuous');
#198=COLOUR_RGB('',0.509803950786591,0.509803950786591,0.588235318660736);
#199=CARTESIAN_POINT('',(-19.75,2.4185975487992E-015,0.0));
#200=VECTOR('',#270,1.0);
#201=SURFACE_SIDE_STYLE('',(#271));
#202=DRAUGHTING_PRE_DEFINED_CURVE_FONT('continuous');
#203=COLOUR_RGB('',0.509803950786591,0.509803950786591,0.588235318660736);
#204=AXIS2_PLACEMENT_3D('',#272,#273,#274);
#205=DRAUGHTING_PRE_DEFINED_CURVE_FONT('continuous');
#206=COLOUR_RGB('',0.509803950786591,0.509803950786591,0.588235318660736);
#207=AXIS2_PLACEMENT_3D('',#275,#276,#277);
#208=PRE_DEFINED_MARKER('');
#209=COLOUR_RGB('',0.509803950786591,0.509803950786591,0.588235318660736);
#210=SURFACE_SIDE_STYLE('',(#278));
#211=EDGE_LOOP('',(#279,#280));
#212=EDGE_LOOP('',(#281,#282));
#213=AXIS2_PLACEMENT_3D('',#283,#284,#285);
#214=PRE_DEFINED_MARKER('');
#215=COLOUR_RGB('',0.509803950786591,0.509803950786591,0.588235318660736);
#216=SURFACE_SIDE_STYLE('',(#286));
#217=EDGE_LOOP('',(#287,#288,#289,#290));
#218=AXIS2_PLACEMENT_3D('',#291,#292,#293);
#219=PRE_DEFINED_MARKER('');
#220=COLOUR_RGB('',0.509803950786591,0.509803950786591,0.588235318660736);
#221=SURFACE_SIDE_STYLE('',(#294));
#222=EDGE_LOOP('',(#295,#296,#297,#298));
#223=AXIS2_PLACEMENT_3D('',#299,#300,#301);
#224=PRE_DEFINED_MARKER('');
#225=COLOUR_RGB('',0.509803950786591,0.509803950786591,0.588235318660736);
#226=DRAUGHTING_PRE_DEFINED_CURVE_FONT('continuous');
#227=COLOUR_RGB('',0.509803950786591,0.509803950786591,0.588235318660736);
#228=AXIS2_PLACEMENT_3D('',#302,#303,#304);
#229=PRE_DEFINED_MARKER('');
#230=COLOUR_RGB('',0.509803950786591,0.509803950786591,0.588235318660736);
#231=DRAUGHTING_PRE_DEFINED_CURVE_FONT('continuous');
#232=COLOUR_RGB('',0.509803950786591,0.509803950786591,0.588235318660736);
#233=AXIS2_PLACEMENT_3D('',#305,#306,#307);
#234=PRE_DEFINED_MARKER('');
#235=COLOUR_RGB('',0.509803950786591,0.509803950786591,0.588235318660736);
#236=DRAUGHTING_PRE_DEFINED_CURVE_FONT('continuous');
#237=COLOUR_RGB('',0.509803950786591,0.509803950786591,0.588235318660736);
#238=CARTESIAN_POINT('',(8.75,-1.07153055959458E-015,0.0));
#239=VECTOR('',#308,1.0);
#240=SURFACE_SIDE_STYLE('',(#309));
#241=EDGE_LOOP('',(#310,#311,#312,#313));
#242=AXIS2_PLACEMENT_3D('',#314,#315,#316);
#243=SURFACE_SIDE_STYLE('',(#317));
#244=EDGE_LOOP('',(#318,#319));
#245=EDGE_LOOP('',(#320,#321));
#246=AXIS2_PLACEMENT_3D('',#322,#323,#324);
#247=DRAUGHTING_PRE_DEFINED_CURVE_FONT('continuous');
#248=COLOUR_RGB('',0.509803950786591,0.509803950786591,0.588235318660736);
#249=AXIS2_PLACEMENT_3D('',#325,#326,#327);
#250=SURFACE_SIDE_STYLE('',(#328));
#251=EDGE_LOOP('',(#329,#330,#331,#332));
#252=AXIS2_PLACEMENT_3D('',#333,#334,#335);
#253=PRE_DEFINED_MARKER('');
#254=COLOUR_RGB('',0.509803950786591,0.509803950786591,0.588235318660736);
#255=DRAUGHTING_PRE_DEFINED_CURVE_FONT('continuous');
#256=COLOUR_RGB('',0.509803950786591,0.509803950786591,0.588235318660736);
#257=AXIS2_PLACEMENT_3D('',#336,#337,#338);
#258=DRAUGHTING_PRE_DEFINED_CURVE_FONT('continuous');
#259=COLOUR_RGB('',0.509803950786591,0.509803950786591,0.588235318660736);
#260=AXIS2_PLACEMENT_3D('',#339,#340,#341);
#261=DRAUGHTING_PRE_DEFINED_CURVE_FONT('continuous');
#262=COLOUR_RGB('',0.509803950786591,0.509803950786591,0.588235318660736);
#263=CARTESIAN_POINT('',(-8.75,1.07153055959458E-015,0.0));
#264=VECTOR('',#342,1.0);
#266=CARTESIAN_POINT('',(0.0,0.0,3.0));
#267=DIRECTION('',(0.0,0.0,-1.0));
#268=DIRECTION('',(-1.0,0.0,0.0));
#269=DIRECTION('',(0.0,0.0,1.0));
#270=DIRECTION('',(-0.0,-0.0,-1.0));
#271=SURFACE_STYLE_FILL_AREA(#343);
#272=CARTESIAN_POINT('',(0.0,0.0,0.0));
#273=DIRECTION('',(0.0,0.0,1.0));
#274=DIRECTION('',(1.0,0.0,0.0));
#275=CARTESIAN_POINT('',(0.0,0.0,0.0));
#276=DIRECTION('',(0.0,0.0,1.0));
#277=DIRECTION('',(1.0,0.0,0.0));
#278=SURFACE_STYLE_FILL_AREA(#344);
#279=ORIENTED_EDGE('',*,*,#79,.T.);
#280=ORIENTED_EDGE('',*,*,#99,.T.);
#281=ORIENTED_EDGE('',*,*,#101,.F.);
#282=ORIENTED_EDGE('',*,*,#51,.F.);
#283=CARTESIAN_POINT('',(0.0,0.0,3.0));
#284=DIRECTION('',(0.0,0.0,1.0));
#285=DIRECTION('',(1.0,0.0,0.0));
#286=SURFACE_STYLE_FILL_AREA(#345);
#287=ORIENTED_EDGE('',*,*,#53,.F.);
#288=ORIENTED_EDGE('',*,*,#63,.T.);
#289=ORIENTED_EDGE('',*,*,#57,.F.);
#290=ORIENTED_EDGE('',*,*,#101,.T.);
#291=CARTESIAN_POINT('',(0.0,0.0,0.0));
#292=DIRECTION('',(-0.0,-0.0,-1.0));
#293=DIRECTION('',(1.0,0.0,0.0));
#294=SURFACE_STYLE_FILL_AREA(#346);
#295=ORIENTED_EDGE('',*,*,#53,.T.);
#296=ORIENTED_EDGE('',*,*,#51,.T.);
#297=ORIENTED_EDGE('',*,*,#57,.T.);
#298=ORIENTED_EDGE('',*,*,#83,.T.);
#299=CARTESIAN_POINT('',(0.0,0.0,0.0));
#300=DIRECTION('',(-0.0,-0.0,-1.0));
#301=DIRECTION('',(1.0,0.0,0.0));
#302=CARTESIAN_POINT('',(0.0,0.0,3.0));
#303=DIRECTION('',(0.0,0.0,-1.0));
#304=DIRECTION('',(1.0,0.0,0.0));
#305=CARTESIAN_POINT('',(0.0,0.0,0.0));
#306=DIRECTION('',(0.0,0.0,1.0));
#307=DIRECTION('',(1.0,0.0,0.0));
#308=DIRECTION('',(-0.0,0.0,-1.0));
#309=SURFACE_STYLE_FILL_AREA(#347);
#310=ORIENTED_EDGE('',*,*,#87,.F.);
#311=ORIENTED_EDGE('',*,*,#79,.F.);
#312=ORIENTED_EDGE('',*,*,#103,.F.);
#313=ORIENTED_EDGE('',*,*,#93,.F.);
#314=CARTESIAN_POINT('',(0.0,0.0,0.0));
#315=DIRECTION('',(-0.0,-0.0,-1.0));
#316=DIRECTION('',(1.0,0.0,0.0));
#317=SURFACE_STYLE_FILL_AREA(#348);
#318=ORIENTED_EDGE('',*,*,#93,.T.);
#319=ORIENTED_EDGE('',*,*,#61,.T.);
#320=ORIENTED_EDGE('',*,*,#63,.F.);
#321=ORIENTED_EDGE('',*,*,#83,.F.);
#322=CARTESIAN_POINT('',(0.0,0.0,0.0));
#323=DIRECTION('',(0.0,0.0,1.0));
#324=DIRECTION('',(1.0,0.0,0.0));
#325=CARTESIAN_POINT('',(0.0,0.0,0.0));
#326=DIRECTION('',(0.0,0.0,1.0));
#327=DIRECTION('',(1.0,0.0,0.0));
#328=SURFACE_STYLE_FILL_AREA(#349);
#329=ORIENTED_EDGE('',*,*,#87,.T.);
#330=ORIENTED_EDGE('',*,*,#61,.F.);
#331=ORIENTED_EDGE('',*,*,#103,.T.);
#332=ORIENTED_EDGE('',*,*,#99,.F.);
#333=CARTESIAN_POINT('',(0.0,0.0,0.0));
#334=DIRECTION('',(-0.0,-0.0,-1.0));
#335=DIRECTION('',(1.0,0.0,0.0));
#336=CARTESIAN_POINT('',(0.0,0.0,3.0));
#337=DIRECTION('',(0.0,0.0,-1.0));
#338=DIRECTION('',(1.0,0.0,0.0));
#339=CARTESIAN_POINT('',(0.0,0.0,3.0));
#340=DIRECTION('',(0.0,0.0,-1.0));
#341=DIRECTION('',(-1.0,0.0,0.0));
#342=DIRECTION('',(-0.0,0.0,1.0));
#343=FILL_AREA_STYLE('',(#350));
#344=FILL_AREA_STYLE('',(#351));
#345=FILL_AREA_STYLE('',(#352));
#346=FILL_AREA_STYLE('',(#353));
#347=FILL_AREA_STYLE('',(#354));
#348=FILL_AREA_STYLE('',(#355));
#349=FILL_AREA_STYLE('',(#356));
#350=FILL_AREA_STYLE_COLOUR('',#357);
#351=FILL_AREA_STYLE_COLOUR('',#358);
#352=FILL_AREA_STYLE_COLOUR('',#359);
#353=FILL_AREA_STYLE_COLOUR('',#360);
#354=FILL_AREA_STYLE_COLOUR('',#361);
#355=FILL_AREA_STYLE_COLOUR('',#362);
#356=FILL_AREA_STYLE_COLOUR('',#363);
#357=COLOUR_RGB('',0.509803950786591,0.509803950786591,0.588235318660736);
#358=COLOUR_RGB('',0.509803950786591,0.509803950786591,0.588235318660736);
#359=COLOUR_RGB('',0.509803950786591,0.509803950786591,0.588235318660736);
#360=COLOUR_RGB('',0.509803950786591,0.509803950786591,0.588235318660736);
#361=COLOUR_RGB('',0.509803950786591,0.509803950786591,0.588235318660736);
#362=COLOUR_RGB('',0.509803950786591,0.509803950786591,0.588235318660736);
#363=COLOUR_RGB('',0.509803950786591,0.509803950786591,0.588235318660736);
ENDSEC;
END-ISO-10303-21;
