ISO-10303-21;
HEADER;
FILE_DESCRIPTION(('STEP AP214'),'1');
FILE_NAME('HALDERV_EH_1586_205.stp','2019-11-20T10:27:55',('TraceParts'),('TraceParts S.A.'),'Spatial InterOp 3D',' ',' ');
FILE_SCHEMA(('AUTOMOTIVE_DESIGN { 1 0 10303 214 1 1 1 1 }'));
ENDSEC;
DATA;
#1=MECHANICAL_DESIGN_GEOMETRIC_PRESENTATION_REPRESENTATION(' ',(#10,#11,#12,#13,#14,#15,#16,#17,#18,#19,#20,#21,#22,#23,#24,#25),#6);
#2=PRODUCT_DEFINITION_CONTEXT('',#26,'design');
#3=APPLICATION_PROTOCOL_DEFINITION('INTERNATIONAL STANDARD','automotive_design',1994,#26);
#4=PRODUCT_CATEGORY_RELATIONSHIP('NONE','NONE',#27,#28);
#5=SHAPE_DEFINITION_REPRESENTATION(#29,#30);
#6= (GEOMETRIC_REPRESENTATION_CONTEXT(3)GLOBAL_UNCERTAINTY_ASSIGNED_CONTEXT((#33))GLOBAL_UNIT_ASSIGNED_CONTEXT((#35,#36,#37))REPRESENTATION_CONTEXT('NONE','WORKSPACE'));
#10=STYLED_ITEM('',(#39),#40);
#11=STYLED_ITEM('',(#41),#42);
#12=STYLED_ITEM('',(#43),#44);
#13=STYLED_ITEM('',(#45),#46);
#14=STYLED_ITEM('',(#47),#48);
#15=STYLED_ITEM('',(#49),#50);
#16=STYLED_ITEM('',(#51),#52);
#17=STYLED_ITEM('',(#53),#54);
#18=STYLED_ITEM('',(#55),#56);
#19=STYLED_ITEM('',(#57),#58);
#20=STYLED_ITEM('',(#59),#60);
#21=STYLED_ITEM('',(#61),#62);
#22=STYLED_ITEM('',(#63),#64);
#23=STYLED_ITEM('',(#65),#66);
#24=STYLED_ITEM('',(#67),#68);
#25=STYLED_ITEM('',(#69),#70);
#26=APPLICATION_CONTEXT(' ');
#27=PRODUCT_CATEGORY('part','NONE');
#28=PRODUCT_RELATED_PRODUCT_CATEGORY('detail',' ',(#71));
#29=PRODUCT_DEFINITION_SHAPE('NONE','NONE',#72);
#30=ADVANCED_BREP_SHAPE_REPRESENTATION('HALDERV_EH_1586_205',(#73,#74),#6);
#33=UNCERTAINTY_MEASURE_WITH_UNIT(LENGTH_MEASURE(1.0E-06),#35,'','');
#35= (CONVERSION_BASED_UNIT('MILLIMETRE',#77)LENGTH_UNIT()NAMED_UNIT(#80));
#36= (NAMED_UNIT(#82)PLANE_ANGLE_UNIT()SI_UNIT($,.RADIAN.));
#37= (NAMED_UNIT(#82)SOLID_ANGLE_UNIT()SI_UNIT($,.STERADIAN.));
#39=PRESENTATION_STYLE_ASSIGNMENT((#88));
#40=ADVANCED_FACE('',(#89),#90,.F.);
#41=PRESENTATION_STYLE_ASSIGNMENT((#91));
#42=ADVANCED_FACE('',(#92),#93,.F.);
#43=PRESENTATION_STYLE_ASSIGNMENT((#94));
#44=ADVANCED_FACE('',(#95),#96,.T.);
#45=PRESENTATION_STYLE_ASSIGNMENT((#97));
#46=ADVANCED_FACE('',(#98),#99,.T.);
#47=PRESENTATION_STYLE_ASSIGNMENT((#100));
#48=ADVANCED_FACE('',(#101),#102,.T.);
#49=PRESENTATION_STYLE_ASSIGNMENT((#103));
#50=ADVANCED_FACE('',(#104),#105,.T.);
#51=PRESENTATION_STYLE_ASSIGNMENT((#106));
#52=ADVANCED_FACE('',(#107),#108,.T.);
#53=PRESENTATION_STYLE_ASSIGNMENT((#109));
#54=ADVANCED_FACE('',(#110),#111,.T.);
#55=PRESENTATION_STYLE_ASSIGNMENT((#112));
#56=ADVANCED_FACE('',(#113),#114,.F.);
#57=PRESENTATION_STYLE_ASSIGNMENT((#115));
#58=ADVANCED_FACE('',(#116,#117,#118),#119,.F.);
#59=PRESENTATION_STYLE_ASSIGNMENT((#120));
#60=ADVANCED_FACE('',(#121),#122,.F.);
#61=PRESENTATION_STYLE_ASSIGNMENT((#123));
#62=ADVANCED_FACE('',(#124),#125,.T.);
#63=PRESENTATION_STYLE_ASSIGNMENT((#126));
#64=ADVANCED_FACE('',(#127),#128,.F.);
#65=PRESENTATION_STYLE_ASSIGNMENT((#129));
#66=ADVANCED_FACE('',(#130),#131,.F.);
#67=PRESENTATION_STYLE_ASSIGNMENT((#132));
#68=ADVANCED_FACE('',(#133),#134,.F.);
#69=PRESENTATION_STYLE_ASSIGNMENT((#135));
#70=ADVANCED_FACE('',(#136),#137,.F.);
#71=PRODUCT('HALDERV_EH_1586_205','HALDERV_EH_1586_205','PART-HALDERV_EH_1586_205-DESC',(#138));
#72=PRODUCT_DEFINITION('','NONE',#139,#2);
#73=MANIFOLD_SOLID_BREP('HALDERV_EH_1586_205',#140);
#74=AXIS2_PLACEMENT_3D('',#141,#142,#143);
#77=LENGTH_MEASURE_WITH_UNIT(LENGTH_MEASURE(1.0),#144);
#80=DIMENSIONAL_EXPONENTS(1.0,0.0,0.0,0.0,0.0,0.0,0.0);
#82=DIMENSIONAL_EXPONENTS(0.0,0.0,0.0,0.0,0.0,0.0,0.0);
#88=SURFACE_STYLE_USAGE(.BOTH.,#145);
#89=FACE_OUTER_BOUND('',#146,.T.);
#90=CONICAL_SURFACE('',#147,5.25,0.785398163397448);
#91=SURFACE_STYLE_USAGE(.BOTH.,#148);
#92=FACE_OUTER_BOUND('',#149,.T.);
#93=CONICAL_SURFACE('',#150,5.25,0.785398163397448);
#94=SURFACE_STYLE_USAGE(.BOTH.,#151);
#95=FACE_OUTER_BOUND('',#152,.T.);
#96=CYLINDRICAL_SURFACE('',#153,5.0);
#97=SURFACE_STYLE_USAGE(.BOTH.,#154);
#98=FACE_OUTER_BOUND('',#155,.T.);
#99=CYLINDRICAL_SURFACE('',#156,5.0);
#100=SURFACE_STYLE_USAGE(.BOTH.,#157);
#101=FACE_OUTER_BOUND('',#158,.T.);
#102=CYLINDRICAL_SURFACE('',#159,5.0);
#103=SURFACE_STYLE_USAGE(.BOTH.,#160);
#104=FACE_OUTER_BOUND('',#161,.T.);
#105=PLANE('',#162);
#106=SURFACE_STYLE_USAGE(.BOTH.,#163);
#107=FACE_OUTER_BOUND('',#164,.T.);
#108=CYLINDRICAL_SURFACE('',#165,5.0);
#109=SURFACE_STYLE_USAGE(.BOTH.,#166);
#110=FACE_OUTER_BOUND('',#167,.T.);
#111=PLANE('',#168);
#112=SURFACE_STYLE_USAGE(.BOTH.,#169);
#113=FACE_OUTER_BOUND('',#170,.T.);
#114=CONICAL_SURFACE('',#171,5.25,0.785398163397448);
#115=SURFACE_STYLE_USAGE(.BOTH.,#172);
#116=FACE_BOUND('',#173,.T.);
#117=FACE_BOUND('',#174,.T.);
#118=FACE_OUTER_BOUND('',#175,.T.);
#119=PLANE('',#176);
#120=SURFACE_STYLE_USAGE(.BOTH.,#177);
#121=FACE_OUTER_BOUND('',#178,.T.);
#122=CONICAL_SURFACE('',#179,5.25,0.785398163397448);
#123=SURFACE_STYLE_USAGE(.BOTH.,#180);
#124=FACE_OUTER_BOUND('',#181,.T.);
#125=PLANE('',#182);
#126=SURFACE_STYLE_USAGE(.BOTH.,#183);
#127=FACE_OUTER_BOUND('',#184,.T.);
#128=PLANE('',#185);
#129=SURFACE_STYLE_USAGE(.BOTH.,#186);
#130=FACE_OUTER_BOUND('',#187,.T.);
#131=PLANE('',#188);
#132=SURFACE_STYLE_USAGE(.BOTH.,#189);
#133=FACE_OUTER_BOUND('',#190,.T.);
#134=PLANE('',#191);
#135=SURFACE_STYLE_USAGE(.BOTH.,#192);
#136=FACE_OUTER_BOUND('',#193,.T.);
#137=PLANE('',#194);
#138=PRODUCT_CONTEXT('',#26,'mechanical');
#139=PRODUCT_DEFINITION_FORMATION_WITH_SPECIFIED_SOURCE(' ','NONE',#71,.NOT_KNOWN.);
#140=CLOSED_SHELL('',(#40,#42,#44,#46,#48,#50,#52,#54,#56,#58,#60,#62,#64,#66,#68,#70));
#141=CARTESIAN_POINT('',(0.0,0.0,0.0));
#142=DIRECTION('',(0.0,0.0,1.0));
#143=DIRECTION('',(1.0,0.0,0.0));
#144= (NAMED_UNIT(#80)LENGTH_UNIT()SI_UNIT(.MILLI.,.METRE.));
#145=SURFACE_SIDE_STYLE('',(#196));
#146=EDGE_LOOP('',(#197,#198,#199,#200));
#147=AXIS2_PLACEMENT_3D('',#201,#202,#203);
#148=SURFACE_SIDE_STYLE('',(#204));
#149=EDGE_LOOP('',(#205,#206,#207,#208));
#150=AXIS2_PLACEMENT_3D('',#209,#210,#211);
#151=SURFACE_SIDE_STYLE('',(#212));
#152=EDGE_LOOP('',(#213,#214,#215,#216));
#153=AXIS2_PLACEMENT_3D('',#217,#218,#219);
#154=SURFACE_SIDE_STYLE('',(#220));
#155=EDGE_LOOP('',(#221,#222,#223,#224));
#156=AXIS2_PLACEMENT_3D('',#225,#226,#227);
#157=SURFACE_SIDE_STYLE('',(#228));
#158=EDGE_LOOP('',(#229,#230,#231,#232));
#159=AXIS2_PLACEMENT_3D('',#233,#234,#235);
#160=SURFACE_SIDE_STYLE('',(#236));
#161=EDGE_LOOP('',(#237,#238));
#162=AXIS2_PLACEMENT_3D('',#239,#240,#241);
#163=SURFACE_SIDE_STYLE('',(#242));
#164=EDGE_LOOP('',(#243,#244,#245,#246));
#165=AXIS2_PLACEMENT_3D('',#247,#248,#249);
#166=SURFACE_SIDE_STYLE('',(#250));
#167=EDGE_LOOP('',(#251,#252));
#168=AXIS2_PLACEMENT_3D('',#253,#254,#255);
#169=SURFACE_SIDE_STYLE('',(#256));
#170=EDGE_LOOP('',(#257,#258,#259,#260));
#171=AXIS2_PLACEMENT_3D('',#261,#262,#263);
#172=SURFACE_SIDE_STYLE('',(#264));
#173=EDGE_LOOP('',(#265,#266));
#174=EDGE_LOOP('',(#267,#268));
#175=EDGE_LOOP('',(#269,#270,#271,#272));
#176=AXIS2_PLACEMENT_3D('',#273,#274,#275);
#177=SURFACE_SIDE_STYLE('',(#276));
#178=EDGE_LOOP('',(#277,#278,#279,#280));
#179=AXIS2_PLACEMENT_3D('',#281,#282,#283);
#180=SURFACE_SIDE_STYLE('',(#284));
#181=EDGE_LOOP('',(#285,#286,#287,#288));
#182=AXIS2_PLACEMENT_3D('',#289,#290,#291);
#183=SURFACE_SIDE_STYLE('',(#292));
#184=EDGE_LOOP('',(#293,#294,#295,#296));
#185=AXIS2_PLACEMENT_3D('',#297,#298,#299);
#186=SURFACE_SIDE_STYLE('',(#300));
#187=EDGE_LOOP('',(#301,#302,#303,#304));
#188=AXIS2_PLACEMENT_3D('',#305,#306,#307);
#189=SURFACE_SIDE_STYLE('',(#308));
#190=EDGE_LOOP('',(#309,#310,#311,#312));
#191=AXIS2_PLACEMENT_3D('',#313,#314,#315);
#192=SURFACE_SIDE_STYLE('',(#316));
#193=EDGE_LOOP('',(#317,#318,#319,#320));
#194=AXIS2_PLACEMENT_3D('',#321,#322,#323);
#196=SURFACE_STYLE_FILL_AREA(#324);
#197=ORIENTED_EDGE('',*,*,#325,.F.);
#198=ORIENTED_EDGE('',*,*,#326,.T.);
#199=ORIENTED_EDGE('',*,*,#327,.F.);
#200=ORIENTED_EDGE('',*,*,#328,.F.);
#201=CARTESIAN_POINT('',(-14.5,4.75,0.0));
#202=DIRECTION('',(-6.12303176911189E-17,1.0,-0.0));
#203=DIRECTION('',(1.0,6.12303176911189E-17,0.0));
#204=SURFACE_STYLE_FILL_AREA(#329);
#205=ORIENTED_EDGE('',*,*,#330,.F.);
#206=ORIENTED_EDGE('',*,*,#331,.T.);
#207=ORIENTED_EDGE('',*,*,#332,.F.);
#208=ORIENTED_EDGE('',*,*,#333,.F.);
#209=CARTESIAN_POINT('',(14.5,4.75,0.0));
#210=DIRECTION('',(-6.12303176911189E-17,1.0,-0.0));
#211=DIRECTION('',(1.0,6.12303176911189E-17,0.0));
#212=SURFACE_STYLE_FILL_AREA(#334);
#213=ORIENTED_EDGE('',*,*,#335,.F.);
#214=ORIENTED_EDGE('',*,*,#336,.F.);
#215=ORIENTED_EDGE('',*,*,#337,.F.);
#216=ORIENTED_EDGE('',*,*,#338,.F.);
#217=CARTESIAN_POINT('',(-14.5,3.5,0.0));
#218=DIRECTION('',(-0.0,1.0,0.0));
#219=DIRECTION('',(1.0,0.0,0.0));
#220=SURFACE_STYLE_FILL_AREA(#339);
#221=ORIENTED_EDGE('',*,*,#340,.F.);
#222=ORIENTED_EDGE('',*,*,#341,.F.);
#223=ORIENTED_EDGE('',*,*,#342,.F.);
#224=ORIENTED_EDGE('',*,*,#343,.F.);
#225=CARTESIAN_POINT('',(14.5,3.5,0.0));
#226=DIRECTION('',(-0.0,1.0,0.0));
#227=DIRECTION('',(1.0,0.0,0.0));
#228=SURFACE_STYLE_FILL_AREA(#344);
#229=ORIENTED_EDGE('',*,*,#340,.T.);
#230=ORIENTED_EDGE('',*,*,#345,.F.);
#231=ORIENTED_EDGE('',*,*,#342,.T.);
#232=ORIENTED_EDGE('',*,*,#331,.F.);
#233=CARTESIAN_POINT('',(14.5,3.5,0.0));
#234=DIRECTION('',(-0.0,1.0,0.0));
#235=DIRECTION('',(1.0,0.0,0.0));
#236=SURFACE_STYLE_FILL_AREA(#346);
#237=ORIENTED_EDGE('',*,*,#343,.T.);
#238=ORIENTED_EDGE('',*,*,#345,.T.);
#239=CARTESIAN_POINT('',(14.5,5.0,0.0));
#240=DIRECTION('',(-0.0,1.0,0.0));
#241=DIRECTION('',(1.0,0.0,0.0));
#242=SURFACE_STYLE_FILL_AREA(#347);
#243=ORIENTED_EDGE('',*,*,#335,.T.);
#244=ORIENTED_EDGE('',*,*,#348,.F.);
#245=ORIENTED_EDGE('',*,*,#337,.T.);
#246=ORIENTED_EDGE('',*,*,#326,.F.);
#247=CARTESIAN_POINT('',(-14.5,3.5,0.0));
#248=DIRECTION('',(-0.0,1.0,0.0));
#249=DIRECTION('',(1.0,0.0,0.0));
#250=SURFACE_STYLE_FILL_AREA(#349);
#251=ORIENTED_EDGE('',*,*,#338,.T.);
#252=ORIENTED_EDGE('',*,*,#348,.T.);
#253=CARTESIAN_POINT('',(-14.5,5.0,0.0));
#254=DIRECTION('',(-0.0,1.0,0.0));
#255=DIRECTION('',(1.0,0.0,0.0));
#256=SURFACE_STYLE_FILL_AREA(#350);
#257=ORIENTED_EDGE('',*,*,#330,.T.);
#258=ORIENTED_EDGE('',*,*,#351,.F.);
#259=ORIENTED_EDGE('',*,*,#332,.T.);
#260=ORIENTED_EDGE('',*,*,#341,.T.);
#261=CARTESIAN_POINT('',(14.5,4.75,0.0));
#262=DIRECTION('',(-6.12303176911189E-17,1.0,-0.0));
#263=DIRECTION('',(1.0,6.12303176911189E-17,0.0));
#264=SURFACE_STYLE_FILL_AREA(#352);
#265=ORIENTED_EDGE('',*,*,#333,.T.);
#266=ORIENTED_EDGE('',*,*,#351,.T.);
#267=ORIENTED_EDGE('',*,*,#328,.T.);
#268=ORIENTED_EDGE('',*,*,#353,.T.);
#269=ORIENTED_EDGE('',*,*,#354,.T.);
#270=ORIENTED_EDGE('',*,*,#355,.F.);
#271=ORIENTED_EDGE('',*,*,#356,.F.);
#272=ORIENTED_EDGE('',*,*,#357,.F.);
#273=CARTESIAN_POINT('',(0.0,5.0,0.0));
#274=DIRECTION('',(0.0,-1.0,0.0));
#275=DIRECTION('',(0.0,0.0,-1.0));
#276=SURFACE_STYLE_FILL_AREA(#358);
#277=ORIENTED_EDGE('',*,*,#325,.T.);
#278=ORIENTED_EDGE('',*,*,#353,.F.);
#279=ORIENTED_EDGE('',*,*,#327,.T.);
#280=ORIENTED_EDGE('',*,*,#336,.T.);
#281=CARTESIAN_POINT('',(-14.5,4.75,0.0));
#282=DIRECTION('',(-6.12303176911189E-17,1.0,-0.0));
#283=DIRECTION('',(1.0,6.12303176911189E-17,0.0));
#284=SURFACE_STYLE_FILL_AREA(#359);
#285=ORIENTED_EDGE('',*,*,#360,.T.);
#286=ORIENTED_EDGE('',*,*,#357,.T.);
#287=ORIENTED_EDGE('',*,*,#361,.T.);
#288=ORIENTED_EDGE('',*,*,#362,.T.);
#289=CARTESIAN_POINT('',(0.0,2.5,7.5));
#290=DIRECTION('',(0.0,0.0,1.0));
#291=DIRECTION('',(1.0,0.0,0.0));
#292=SURFACE_STYLE_FILL_AREA(#363);
#293=ORIENTED_EDGE('',*,*,#364,.T.);
#294=ORIENTED_EDGE('',*,*,#365,.T.);
#295=ORIENTED_EDGE('',*,*,#366,.T.);
#296=ORIENTED_EDGE('',*,*,#355,.T.);
#297=CARTESIAN_POINT('',(0.0,2.5,-7.5));
#298=DIRECTION('',(0.0,0.0,1.0));
#299=DIRECTION('',(1.0,0.0,0.0));
#300=SURFACE_STYLE_FILL_AREA(#367);
#301=ORIENTED_EDGE('',*,*,#368,.T.);
#302=ORIENTED_EDGE('',*,*,#365,.F.);
#303=ORIENTED_EDGE('',*,*,#369,.F.);
#304=ORIENTED_EDGE('',*,*,#362,.F.);
#305=CARTESIAN_POINT('',(0.0,0.0,0.0));
#306=DIRECTION('',(0.0,1.0,0.0));
#307=DIRECTION('',(0.0,0.0,1.0));
#308=SURFACE_STYLE_FILL_AREA(#370);
#309=ORIENTED_EDGE('',*,*,#356,.T.);
#310=ORIENTED_EDGE('',*,*,#366,.F.);
#311=ORIENTED_EDGE('',*,*,#368,.F.);
#312=ORIENTED_EDGE('',*,*,#361,.F.);
#313=CARTESIAN_POINT('',(-22.0,2.5,0.0));
#314=DIRECTION('',(1.0,0.0,0.0));
#315=DIRECTION('',(0.0,0.0,-1.0));
#316=SURFACE_STYLE_FILL_AREA(#371);
#317=ORIENTED_EDGE('',*,*,#369,.T.);
#318=ORIENTED_EDGE('',*,*,#364,.F.);
#319=ORIENTED_EDGE('',*,*,#354,.F.);
#320=ORIENTED_EDGE('',*,*,#360,.F.);
#321=CARTESIAN_POINT('',(22.0,2.5,0.0));
#322=DIRECTION('',(-1.0,0.0,0.0));
#323=DIRECTION('',(0.0,0.0,1.0));
#324=FILL_AREA_STYLE('',(#372));
#325=EDGE_CURVE('',#373,#374,#375,.T.);
#326=EDGE_CURVE('',#373,#376,#377,.T.);
#327=EDGE_CURVE('',#378,#376,#379,.T.);
#328=EDGE_CURVE('',#374,#378,#380,.T.);
#329=FILL_AREA_STYLE('',(#381));
#330=EDGE_CURVE('',#382,#383,#384,.T.);
#331=EDGE_CURVE('',#382,#385,#386,.T.);
#332=EDGE_CURVE('',#387,#385,#388,.T.);
#333=EDGE_CURVE('',#383,#387,#389,.T.);
#334=FILL_AREA_STYLE('',(#390));
#335=EDGE_CURVE('',#373,#391,#392,.T.);
#336=EDGE_CURVE('',#376,#373,#393,.T.);
#337=EDGE_CURVE('',#394,#376,#395,.T.);
#338=EDGE_CURVE('',#391,#394,#396,.T.);
#339=FILL_AREA_STYLE('',(#397));
#340=EDGE_CURVE('',#382,#398,#399,.T.);
#341=EDGE_CURVE('',#385,#382,#400,.T.);
#342=EDGE_CURVE('',#401,#385,#402,.T.);
#343=EDGE_CURVE('',#398,#401,#403,.T.);
#344=FILL_AREA_STYLE('',(#404));
#345=EDGE_CURVE('',#401,#398,#405,.T.);
#346=FILL_AREA_STYLE('',(#406));
#347=FILL_AREA_STYLE('',(#407));
#348=EDGE_CURVE('',#394,#391,#408,.T.);
#349=FILL_AREA_STYLE('',(#409));
#350=FILL_AREA_STYLE('',(#410));
#351=EDGE_CURVE('',#387,#383,#411,.T.);
#352=FILL_AREA_STYLE('',(#412));
#353=EDGE_CURVE('',#378,#374,#413,.T.);
#354=EDGE_CURVE('',#414,#415,#416,.T.);
#355=EDGE_CURVE('',#417,#415,#418,.T.);
#356=EDGE_CURVE('',#419,#417,#420,.T.);
#357=EDGE_CURVE('',#414,#419,#421,.T.);
#358=FILL_AREA_STYLE('',(#422));
#359=FILL_AREA_STYLE('',(#423));
#360=EDGE_CURVE('',#424,#414,#425,.T.);
#361=EDGE_CURVE('',#419,#426,#427,.T.);
#362=EDGE_CURVE('',#426,#424,#428,.T.);
#363=FILL_AREA_STYLE('',(#429));
#364=EDGE_CURVE('',#415,#430,#431,.T.);
#365=EDGE_CURVE('',#430,#432,#433,.T.);
#366=EDGE_CURVE('',#432,#417,#434,.T.);
#367=FILL_AREA_STYLE('',(#435));
#368=EDGE_CURVE('',#426,#432,#436,.T.);
#369=EDGE_CURVE('',#424,#430,#437,.T.);
#370=FILL_AREA_STYLE('',(#438));
#371=FILL_AREA_STYLE('',(#439));
#372=FILL_AREA_STYLE_COLOUR('',#440);
#373=VERTEX_POINT('',#441);
#374=VERTEX_POINT('',#442);
#375=LINE('',#443,#444);
#376=VERTEX_POINT('',#445);
#377=CIRCLE('',#446,5.0);
#378=VERTEX_POINT('',#447);
#379=LINE('',#448,#449);
#380=CIRCLE('',#450,5.5);
#381=FILL_AREA_STYLE_COLOUR('',#451);
#382=VERTEX_POINT('',#452);
#383=VERTEX_POINT('',#453);
#384=LINE('',#454,#455);
#385=VERTEX_POINT('',#456);
#386=CIRCLE('',#457,5.0);
#387=VERTEX_POINT('',#458);
#388=LINE('',#459,#460);
#389=CIRCLE('',#461,5.5);
#390=FILL_AREA_STYLE_COLOUR('',#462);
#391=VERTEX_POINT('',#463);
#392=LINE('',#464,#465);
#393=CIRCLE('',#466,5.0);
#394=VERTEX_POINT('',#467);
#395=LINE('',#468,#469);
#396=CIRCLE('',#470,5.0);
#397=FILL_AREA_STYLE_COLOUR('',#471);
#398=VERTEX_POINT('',#472);
#399=LINE('',#473,#474);
#400=CIRCLE('',#475,5.0);
#401=VERTEX_POINT('',#476);
#402=LINE('',#477,#478);
#403=CIRCLE('',#479,5.0);
#404=FILL_AREA_STYLE_COLOUR('',#480);
#405=CIRCLE('',#481,5.0);
#406=FILL_AREA_STYLE_COLOUR('',#482);
#407=FILL_AREA_STYLE_COLOUR('',#483);
#408=CIRCLE('',#484,5.0);
#409=FILL_AREA_STYLE_COLOUR('',#485);
#410=FILL_AREA_STYLE_COLOUR('',#486);
#411=CIRCLE('',#487,5.5);
#412=FILL_AREA_STYLE_COLOUR('',#488);
#413=CIRCLE('',#489,5.5);
#414=VERTEX_POINT('',#490);
#415=VERTEX_POINT('',#491);
#416=LINE('',#492,#493);
#417=VERTEX_POINT('',#494);
#418=LINE('',#495,#496);
#419=VERTEX_POINT('',#497);
#420=LINE('',#498,#499);
#421=LINE('',#500,#501);
#422=FILL_AREA_STYLE_COLOUR('',#502);
#423=FILL_AREA_STYLE_COLOUR('',#503);
#424=VERTEX_POINT('',#504);
#425=LINE('',#505,#506);
#426=VERTEX_POINT('',#507);
#427=LINE('',#508,#509);
#428=LINE('',#510,#511);
#429=FILL_AREA_STYLE_COLOUR('',#512);
#430=VERTEX_POINT('',#513);
#431=LINE('',#514,#515);
#432=VERTEX_POINT('',#516);
#433=LINE('',#517,#518);
#434=LINE('',#519,#520);
#435=FILL_AREA_STYLE_COLOUR('',#521);
#436=LINE('',#522,#523);
#437=LINE('',#524,#525);
#438=FILL_AREA_STYLE_COLOUR('',#526);
#439=FILL_AREA_STYLE_COLOUR('',#527);
#440=COLOUR_RGB('',0.752941191196442,0.752941191196442,0.752941191196442);
#441=CARTESIAN_POINT('',(-9.5,4.5,0.0));
#442=CARTESIAN_POINT('',(-9.0,5.0,0.0));
#443=CARTESIAN_POINT('',(-9.25,4.75,-6.42918335756748E-16));
#444=VECTOR('',#528,1.0);
#445=CARTESIAN_POINT('',(-19.5,4.5,-6.12303176911189E-16));
#446=AXIS2_PLACEMENT_3D('',#529,#530,#531);
#447=CARTESIAN_POINT('',(-20.0,5.0,6.73533494602307E-16));
#448=CARTESIAN_POINT('',(-19.75,4.75,6.42918335756748E-16));
#449=VECTOR('',#532,1.0);
#450=AXIS2_PLACEMENT_3D('',#533,#534,#535);
#451=COLOUR_RGB('',0.752941191196442,0.752941191196442,0.752941191196442);
#452=CARTESIAN_POINT('',(19.5,4.5,0.0));
#453=CARTESIAN_POINT('',(20.0,5.0,0.0));
#454=CARTESIAN_POINT('',(19.75,4.75,-6.42918335756748E-16));
#455=VECTOR('',#536,1.0);
#456=CARTESIAN_POINT('',(9.5,4.5,-6.12303176911189E-16));
#457=AXIS2_PLACEMENT_3D('',#537,#538,#539);
#458=CARTESIAN_POINT('',(9.0,5.0,6.73533494602307E-16));
#459=CARTESIAN_POINT('',(9.25,4.75,6.42918335756748E-16));
#460=VECTOR('',#540,1.0);
#461=AXIS2_PLACEMENT_3D('',#541,#542,#543);
#462=COLOUR_RGB('',0.701960802078247,0.74117648601532,0.701960802078247);
#463=CARTESIAN_POINT('',(-9.5,5.0,0.0));
#464=CARTESIAN_POINT('',(-9.5,4.75,6.12303176911189E-16));
#465=VECTOR('',#544,1.0);
#466=AXIS2_PLACEMENT_3D('',#545,#546,#547);
#467=CARTESIAN_POINT('',(-19.5,5.0,-6.12303176911189E-16));
#468=CARTESIAN_POINT('',(-19.5,4.75,-6.12303176911189E-16));
#469=VECTOR('',#548,1.0);
#470=AXIS2_PLACEMENT_3D('',#549,#550,#551);
#471=COLOUR_RGB('',0.701960802078247,0.74117648601532,0.701960802078247);
#472=CARTESIAN_POINT('',(19.5,5.0,0.0));
#473=CARTESIAN_POINT('',(19.5,4.75,6.12303176911189E-16));
#474=VECTOR('',#552,1.0);
#475=AXIS2_PLACEMENT_3D('',#553,#554,#555);
#476=CARTESIAN_POINT('',(9.5,5.0,-6.12303176911189E-16));
#477=CARTESIAN_POINT('',(9.5,4.75,-6.12303176911189E-16));
#478=VECTOR('',#556,1.0);
#479=AXIS2_PLACEMENT_3D('',#557,#558,#559);
#480=COLOUR_RGB('',0.701960802078247,0.74117648601532,0.701960802078247);
#481=AXIS2_PLACEMENT_3D('',#560,#561,#562);
#482=COLOUR_RGB('',0.701960802078247,0.74117648601532,0.701960802078247);
#483=COLOUR_RGB('',0.701960802078247,0.74117648601532,0.701960802078247);
#484=AXIS2_PLACEMENT_3D('',#563,#564,#565);
#485=COLOUR_RGB('',0.701960802078247,0.74117648601532,0.701960802078247);
#486=COLOUR_RGB('',0.752941191196442,0.752941191196442,0.752941191196442);
#487=AXIS2_PLACEMENT_3D('',#566,#567,#568);
#488=COLOUR_RGB('',0.752941191196442,0.752941191196442,0.752941191196442);
#489=AXIS2_PLACEMENT_3D('',#569,#570,#571);
#490=CARTESIAN_POINT('',(22.0,5.0,7.5));
#491=CARTESIAN_POINT('',(22.0,5.0,-7.5));
#492=CARTESIAN_POINT('',(22.0,5.0,0.0));
#493=VECTOR('',#572,1.0);
#494=CARTESIAN_POINT('',(-22.0,5.0,-7.5));
#495=CARTESIAN_POINT('',(0.0,5.0,-7.5));
#496=VECTOR('',#573,1.0);
#497=CARTESIAN_POINT('',(-22.0,5.0,7.5));
#498=CARTESIAN_POINT('',(-22.0,5.0,0.0));
#499=VECTOR('',#574,1.0);
#500=CARTESIAN_POINT('',(0.0,5.0,7.5));
#501=VECTOR('',#575,1.0);
#502=COLOUR_RGB('',0.752941191196442,0.752941191196442,0.752941191196442);
#503=COLOUR_RGB('',0.752941191196442,0.752941191196442,0.752941191196442);
#504=CARTESIAN_POINT('',(22.0,0.0,7.5));
#505=CARTESIAN_POINT('',(22.0,2.5,7.5));
#506=VECTOR('',#576,1.0);
#507=CARTESIAN_POINT('',(-22.0,0.0,7.5));
#508=CARTESIAN_POINT('',(-22.0,2.5,7.5));
#509=VECTOR('',#577,1.0);
#510=CARTESIAN_POINT('',(0.0,0.0,7.5));
#511=VECTOR('',#578,1.0);
#512=COLOUR_RGB('',0.752941191196442,0.752941191196442,0.752941191196442);
#513=CARTESIAN_POINT('',(22.0,0.0,-7.5));
#514=CARTESIAN_POINT('',(22.0,2.5,-7.5));
#515=VECTOR('',#579,1.0);
#516=CARTESIAN_POINT('',(-22.0,0.0,-7.5));
#517=CARTESIAN_POINT('',(0.0,0.0,-7.5));
#518=VECTOR('',#580,1.0);
#519=CARTESIAN_POINT('',(-22.0,2.5,-7.5));
#520=VECTOR('',#581,1.0);
#521=COLOUR_RGB('',0.752941191196442,0.752941191196442,0.752941191196442);
#522=CARTESIAN_POINT('',(-22.0,0.0,0.0));
#523=VECTOR('',#582,1.0);
#524=CARTESIAN_POINT('',(22.0,0.0,0.0));
#525=VECTOR('',#583,1.0);
#526=COLOUR_RGB('',0.752941191196442,0.752941191196442,0.752941191196442);
#527=COLOUR_RGB('',0.752941191196442,0.752941191196442,0.752941191196442);
#528=DIRECTION('',(0.707106781186547,0.707106781186548,-8.65927457071936E-17));
#529=CARTESIAN_POINT('',(-14.5,4.5,0.0));
#530=DIRECTION('',(6.12303176911189E-17,-1.0,0.0));
#531=DIRECTION('',(1.0,6.12303176911189E-17,0.0));
#532=DIRECTION('',(0.707106781186548,-0.707106781186548,-8.65927457071935E-17));
#533=CARTESIAN_POINT('',(-14.5,5.0,0.0));
#534=DIRECTION('',(0.0,-1.0,0.0));
#535=DIRECTION('',(1.0,0.0,0.0));
#536=DIRECTION('',(0.707106781186547,0.707106781186548,-8.65927457071936E-17));
#537=CARTESIAN_POINT('',(14.5,4.5,0.0));
#538=DIRECTION('',(6.12303176911189E-17,-1.0,0.0));
#539=DIRECTION('',(1.0,6.12303176911189E-17,0.0));
#540=DIRECTION('',(0.707106781186548,-0.707106781186548,-8.65927457071935E-17));
#541=CARTESIAN_POINT('',(14.5,5.0,0.0));
#542=DIRECTION('',(0.0,-1.0,0.0));
#543=DIRECTION('',(1.0,0.0,0.0));
#544=DIRECTION('',(0.0,1.0,0.0));
#545=CARTESIAN_POINT('',(-14.5,4.5,0.0));
#546=DIRECTION('',(6.12303176911189E-17,-1.0,0.0));
#547=DIRECTION('',(1.0,6.12303176911189E-17,0.0));
#548=DIRECTION('',(-0.0,-1.0,-0.0));
#549=CARTESIAN_POINT('',(-14.5,5.0,0.0));
#550=DIRECTION('',(-0.0,1.0,0.0));
#551=DIRECTION('',(1.0,0.0,0.0));
#552=DIRECTION('',(0.0,1.0,0.0));
#553=CARTESIAN_POINT('',(14.5,4.5,0.0));
#554=DIRECTION('',(6.12303176911189E-17,-1.0,0.0));
#555=DIRECTION('',(1.0,6.12303176911189E-17,0.0));
#556=DIRECTION('',(-0.0,-1.0,-0.0));
#557=CARTESIAN_POINT('',(14.5,5.0,0.0));
#558=DIRECTION('',(-0.0,1.0,0.0));
#559=DIRECTION('',(1.0,0.0,0.0));
#560=CARTESIAN_POINT('',(14.5,5.0,0.0));
#561=DIRECTION('',(-0.0,1.0,0.0));
#562=DIRECTION('',(1.0,0.0,0.0));
#563=CARTESIAN_POINT('',(-14.5,5.0,0.0));
#564=DIRECTION('',(-0.0,1.0,0.0));
#565=DIRECTION('',(1.0,0.0,0.0));
#566=CARTESIAN_POINT('',(14.5,5.0,0.0));
#567=DIRECTION('',(0.0,-1.0,0.0));
#568=DIRECTION('',(1.0,0.0,0.0));
#569=CARTESIAN_POINT('',(-14.5,5.0,0.0));
#570=DIRECTION('',(0.0,-1.0,0.0));
#571=DIRECTION('',(1.0,0.0,0.0));
#572=DIRECTION('',(0.0,0.0,-1.0));
#573=DIRECTION('',(1.0,0.0,0.0));
#574=DIRECTION('',(0.0,0.0,-1.0));
#575=DIRECTION('',(-1.0,0.0,0.0));
#576=DIRECTION('',(0.0,1.0,0.0));
#577=DIRECTION('',(0.0,-1.0,0.0));
#578=DIRECTION('',(1.0,0.0,0.0));
#579=DIRECTION('',(0.0,-1.0,0.0));
#580=DIRECTION('',(-1.0,0.0,0.0));
#581=DIRECTION('',(0.0,1.0,0.0));
#582=DIRECTION('',(0.0,0.0,-1.0));
#583=DIRECTION('',(0.0,0.0,-1.0));
ENDSEC;
END-ISO-10303-21;
