ISO-10303-21;
HEADER;
FILE_DESCRIPTION(('STEP AP214'),'1');
FILE_NAME(' ','  ',('TraceParts'),('TraceParts S.A.'),'XStep 1.0',' ',' ');
FILE_SCHEMA(('automotive_design'));
ENDSEC;
DATA;
#1=MECHANICAL_DESIGN_GEOMETRIC_PRESENTATION_REPRESENTATION(' ',(#10,#11,#12,#13,#14,#15,#16,#17,#18,#19,#20,#21,#22,#23,#24,#25,#26,#27,#28,#29,#30,#31,#32,#33,#34,#35,#36,#37,#38,#39,#40,#41,#42,#43,#44,#45,#46,#47,#48,#49,#50,#51,#52,#53,#54,#55,#56,#57),#6);
#2=PRODUCT_DEFINITION_CONTEXT('',#58,'design');
#3=APPLICATION_PROTOCOL_DEFINITION('INTERNATIONAL STANDARD','automotive_design',1994,#58);
#4=PRODUCT_CATEGORY_RELATIONSHIP('NONE','NONE',#59,#60);
#5=SHAPE_DEFINITION_REPRESENTATION(#61,#62);
#6= (GEOMETRIC_REPRESENTATION_CONTEXT(3)GLOBAL_UNCERTAINTY_ASSIGNED_CONTEXT((#65))GLOBAL_UNIT_ASSIGNED_CONTEXT((#67,#68,#69))REPRESENTATION_CONTEXT('NONE','WORKSPACE'));
#10=STYLED_ITEM('',(#71),#72);
#11=STYLED_ITEM('',(#73),#74);
#12=STYLED_ITEM('',(#75),#76);
#13=STYLED_ITEM('',(#77),#78);
#14=STYLED_ITEM('',(#79),#80);
#15=STYLED_ITEM('',(#81),#82);
#16=STYLED_ITEM('',(#83),#84);
#17=STYLED_ITEM('',(#85),#86);
#18=STYLED_ITEM('',(#87),#88);
#19=STYLED_ITEM('',(#89),#90);
#20=STYLED_ITEM('',(#91),#92);
#21=STYLED_ITEM('',(#93),#94);
#22=STYLED_ITEM('',(#95),#96);
#23=STYLED_ITEM('',(#97),#98);
#24=STYLED_ITEM('',(#99),#100);
#25=STYLED_ITEM('',(#101),#102);
#26=STYLED_ITEM('',(#103),#104);
#27=STYLED_ITEM('',(#105),#106);
#28=STYLED_ITEM('',(#107),#108);
#29=STYLED_ITEM('',(#109),#110);
#30=STYLED_ITEM('',(#111),#112);
#31=STYLED_ITEM('',(#113),#114);
#32=STYLED_ITEM('',(#115),#116);
#33=STYLED_ITEM('',(#117),#118);
#34=STYLED_ITEM('',(#119),#120);
#35=STYLED_ITEM('',(#121),#122);
#36=STYLED_ITEM('',(#123),#124);
#37=STYLED_ITEM('',(#125),#126);
#38=STYLED_ITEM('',(#127),#128);
#39=STYLED_ITEM('',(#129),#130);
#40=STYLED_ITEM('',(#131),#132);
#41=STYLED_ITEM('',(#133),#134);
#42=STYLED_ITEM('',(#135),#136);
#43=STYLED_ITEM('',(#137),#138);
#44=STYLED_ITEM('',(#139),#140);
#45=STYLED_ITEM('',(#141),#142);
#46=STYLED_ITEM('',(#143),#144);
#47=STYLED_ITEM('',(#145),#146);
#48=STYLED_ITEM('',(#147),#148);
#49=STYLED_ITEM('',(#149),#150);
#50=STYLED_ITEM('',(#151),#152);
#51=STYLED_ITEM('',(#153),#154);
#52=STYLED_ITEM('',(#155),#156);
#53=STYLED_ITEM('',(#157),#158);
#54=STYLED_ITEM('',(#159),#160);
#55=STYLED_ITEM('',(#161),#162);
#56=STYLED_ITEM('',(#163),#164);
#57=STYLED_ITEM('',(#165),#166);
#58=APPLICATION_CONTEXT(' ');
#59=PRODUCT_CATEGORY('part','NONE');
#60=PRODUCT_RELATED_PRODUCT_CATEGORY('detail',' ',(#167));
#61=PRODUCT_DEFINITION_SHAPE('NONE','NONE',#168);
#62=ADVANCED_BREP_SHAPE_REPRESENTATION('1',(#164,#169),#6);
#65=UNCERTAINTY_MEASURE_WITH_UNIT(LENGTH_MEASURE(1.0E-006),#67,'','');
#67= (CONVERSION_BASED_UNIT('MILLIMETRE',#172)LENGTH_UNIT()NAMED_UNIT(#175));
#68= (NAMED_UNIT(#177)PLANE_ANGLE_UNIT()SI_UNIT($,.RADIAN.));
#69= (NAMED_UNIT(#177)SOLID_ANGLE_UNIT()SI_UNIT($,.STERADIAN.));
#71=PRESENTATION_STYLE_ASSIGNMENT((#183));
#72=VERTEX_POINT('',#184);
#73=PRESENTATION_STYLE_ASSIGNMENT((#185));
#74=ADVANCED_FACE('',(#186),#187,.T.);
#75=PRESENTATION_STYLE_ASSIGNMENT((#188));
#76=VERTEX_POINT('',#189);
#77=PRESENTATION_STYLE_ASSIGNMENT((#190));
#78=EDGE_CURVE('',#162,#146,#191,.T.);
#79=PRESENTATION_STYLE_ASSIGNMENT((#192));
#80=ADVANCED_FACE('',(#193),#194,.T.);
#81=PRESENTATION_STYLE_ASSIGNMENT((#195));
#82=EDGE_CURVE('',#76,#98,#196,.T.);
#83=PRESENTATION_STYLE_ASSIGNMENT((#197));
#84=ADVANCED_FACE('',(#198,#199),#200,.T.);
#85=PRESENTATION_STYLE_ASSIGNMENT((#201));
#86=ADVANCED_FACE('',(#202,#203),#204,.T.);
#87=PRESENTATION_STYLE_ASSIGNMENT((#205));
#88=VERTEX_POINT('',#206);
#89=PRESENTATION_STYLE_ASSIGNMENT((#207));
#90=EDGE_CURVE('',#88,#116,#208,.T.);
#91=PRESENTATION_STYLE_ASSIGNMENT((#209));
#92=EDGE_CURVE('',#144,#162,#210,.T.);
#93=PRESENTATION_STYLE_ASSIGNMENT((#211));
#94=VERTEX_POINT('',#212);
#95=PRESENTATION_STYLE_ASSIGNMENT((#213));
#96=VERTEX_POINT('',#214);
#97=PRESENTATION_STYLE_ASSIGNMENT((#215));
#98=VERTEX_POINT('',#216);
#99=PRESENTATION_STYLE_ASSIGNMENT((#217));
#100=EDGE_CURVE('',#72,#98,#218,.T.);
#101=PRESENTATION_STYLE_ASSIGNMENT((#219));
#102=EDGE_CURVE('',#150,#152,#220,.T.);
#103=PRESENTATION_STYLE_ASSIGNMENT((#221));
#104=EDGE_CURVE('',#154,#152,#222,.T.);
#105=PRESENTATION_STYLE_ASSIGNMENT((#223));
#106=EDGE_CURVE('',#114,#146,#224,.T.);
#107=PRESENTATION_STYLE_ASSIGNMENT((#225));
#108=ADVANCED_FACE('',(#226),#227,.F.);
#109=PRESENTATION_STYLE_ASSIGNMENT((#228));
#110=EDGE_CURVE('',#114,#144,#229,.T.);
#111=PRESENTATION_STYLE_ASSIGNMENT((#230));
#112=EDGE_CURVE('',#94,#150,#231,.T.);
#113=PRESENTATION_STYLE_ASSIGNMENT((#232));
#114=VERTEX_POINT('',#233);
#115=PRESENTATION_STYLE_ASSIGNMENT((#234));
#116=VERTEX_POINT('',#235);
#117=PRESENTATION_STYLE_ASSIGNMENT((#236));
#118=ADVANCED_FACE('',(#237,#238),#239,.T.);
#119=PRESENTATION_STYLE_ASSIGNMENT((#240));
#120=ADVANCED_FACE('',(#241),#242,.T.);
#121=PRESENTATION_STYLE_ASSIGNMENT((#243));
#122=EDGE_CURVE('',#152,#154,#244,.T.);
#123=PRESENTATION_STYLE_ASSIGNMENT((#245));
#124=EDGE_CURVE('',#98,#72,#246,.T.);
#125=PRESENTATION_STYLE_ASSIGNMENT((#247));
#126=EDGE_CURVE('',#154,#94,#248,.T.);
#127=PRESENTATION_STYLE_ASSIGNMENT((#249));
#128=ADVANCED_FACE('',(#250),#251,.F.);
#129=PRESENTATION_STYLE_ASSIGNMENT((#252));
#130=ADVANCED_FACE('',(#253),#254,.T.);
#131=PRESENTATION_STYLE_ASSIGNMENT((#255));
#132=EDGE_CURVE('',#146,#114,#256,.T.);
#133=PRESENTATION_STYLE_ASSIGNMENT((#257));
#134=EDGE_CURVE('',#116,#88,#258,.T.);
#135=PRESENTATION_STYLE_ASSIGNMENT((#259));
#136=EDGE_CURVE('',#98,#88,#260,.T.);
#137=PRESENTATION_STYLE_ASSIGNMENT((#261));
#138=EDGE_CURVE('',#116,#72,#262,.T.);
#139=PRESENTATION_STYLE_ASSIGNMENT((#263));
#140=ADVANCED_FACE('',(#264),#265,.F.);
#141=PRESENTATION_STYLE_ASSIGNMENT((#266));
#142=EDGE_CURVE('',#96,#76,#267,.T.);
#143=PRESENTATION_STYLE_ASSIGNMENT((#268));
#144=VERTEX_POINT('',#269);
#145=PRESENTATION_STYLE_ASSIGNMENT((#270));
#146=VERTEX_POINT('',#271);
#147=PRESENTATION_STYLE_ASSIGNMENT((#272));
#148=EDGE_CURVE('',#162,#144,#273,.T.);
#149=PRESENTATION_STYLE_ASSIGNMENT((#274));
#150=VERTEX_POINT('',#275);
#151=PRESENTATION_STYLE_ASSIGNMENT((#276));
#152=VERTEX_POINT('',#277);
#153=PRESENTATION_STYLE_ASSIGNMENT((#278));
#154=VERTEX_POINT('',#279);
#155=PRESENTATION_STYLE_ASSIGNMENT((#280));
#156=EDGE_CURVE('',#76,#96,#281,.T.);
#157=PRESENTATION_STYLE_ASSIGNMENT((#282));
#158=EDGE_CURVE('',#150,#94,#283,.T.);
#159=PRESENTATION_STYLE_ASSIGNMENT((#284));
#160=ADVANCED_FACE('',(#285),#286,.F.);
#161=PRESENTATION_STYLE_ASSIGNMENT((#287));
#162=VERTEX_POINT('',#288);
#163=PRESENTATION_STYLE_ASSIGNMENT((#289));
#164=MANIFOLD_SOLID_BREP('1',#290);
#165=PRESENTATION_STYLE_ASSIGNMENT((#291));
#166=EDGE_CURVE('',#72,#96,#292,.T.);
#167=PRODUCT('1','1','PART-1-DESC',(#293));
#168=PRODUCT_DEFINITION('NONE','NONE',#294,#2);
#169=AXIS2_PLACEMENT_3D('',#295,#296,#297);
#172=LENGTH_MEASURE_WITH_UNIT(LENGTH_MEASURE(1.0),#298);
#175=DIMENSIONAL_EXPONENTS(1.0,0.0,0.0,0.0,0.0,0.0,0.0);
#177=DIMENSIONAL_EXPONENTS(0.0,0.0,0.0,0.0,0.0,0.0,0.0);
#183=POINT_STYLE(' ',#299,POSITIVE_LENGTH_MEASURE(1.0E-006),#300);
#184=CARTESIAN_POINT('',(20.0,1.04279490952889E-014,48.0));
#185=SURFACE_STYLE_USAGE(.BOTH.,#301);
#186=FACE_OUTER_BOUND('',#302,.T.);
#187=CYLINDRICAL_SURFACE('',#303,20.0);
#188=POINT_STYLE(' ',#304,POSITIVE_LENGTH_MEASURE(1.0E-006),#305);
#189=CARTESIAN_POINT('',(-19.9999999999999,6.26067245433634E-015,-2.8421709430404E-014));
#190=CURVE_STYLE('',#306,POSITIVE_LENGTH_MEASURE(1.0E-006),#307);
#191=LINE('',#308,#309);
#192=SURFACE_STYLE_USAGE(.BOTH.,#310);
#193=FACE_OUTER_BOUND('',#311,.T.);
#194=CYLINDRICAL_SURFACE('',#312,20.0);
#195=CURVE_STYLE('',#313,POSITIVE_LENGTH_MEASURE(1.0E-006),#314);
#196=LINE('',#315,#316);
#197=SURFACE_STYLE_USAGE(.BOTH.,#317);
#198=FACE_BOUND('',#318,.T.);
#199=FACE_OUTER_BOUND('',#319,.T.);
#200=PLANE('',#320);
#201=SURFACE_STYLE_USAGE(.BOTH.,#321);
#202=FACE_OUTER_BOUND('',#322,.T.);
#203=FACE_BOUND('',#323,.T.);
#204=PLANE('',#324);
#205=POINT_STYLE(' ',#325,POSITIVE_LENGTH_MEASURE(1.0E-006),#326);
#206=CARTESIAN_POINT('',(-17.9999999999999,6.44472491120535E-015,50.0));
#207=CURVE_STYLE('',#327,POSITIVE_LENGTH_MEASURE(1.0E-006),#328);
#208=CIRCLE('',#329,18.0);
#209=CURVE_STYLE('',#330,POSITIVE_LENGTH_MEASURE(1.0E-006),#331);
#210=CIRCLE('',#332,10.0);
#211=POINT_STYLE(' ',#333,POSITIVE_LENGTH_MEASURE(1.0E-006),#334);
#212=CARTESIAN_POINT('',(-5.99999999999994,7.54903965241937E-015,24.0));
#213=POINT_STYLE(' ',#335,POSITIVE_LENGTH_MEASURE(1.0E-006),#336);
#214=CARTESIAN_POINT('',(20.0,7.48889384611519E-015,-2.8421709430404E-014));
#215=POINT_STYLE(' ',#337,POSITIVE_LENGTH_MEASURE(1.0E-006),#338);
#216=CARTESIAN_POINT('',(-19.9999999999999,6.26067245433634E-015,48.0));
#217=CURVE_STYLE('',#339,POSITIVE_LENGTH_MEASURE(1.0E-006),#340);
#218=CIRCLE('',#341,20.0);
#219=CURVE_STYLE('',#342,POSITIVE_LENGTH_MEASURE(1.0E-006),#343);
#220=LINE('',#344,#345);
#221=CURVE_STYLE('',#346,POSITIVE_LENGTH_MEASURE(1.0E-006),#347);
#222=CIRCLE('',#348,6.0);
#223=CURVE_STYLE('',#349,POSITIVE_LENGTH_MEASURE(1.0E-006),#350);
#224=CIRCLE('',#351,10.0);
#225=SURFACE_STYLE_USAGE(.BOTH.,#352);
#226=FACE_OUTER_BOUND('',#353,.T.);
#227=CYLINDRICAL_SURFACE('',#354,10.0);
#228=CURVE_STYLE('',#355,POSITIVE_LENGTH_MEASURE(1.0E-006),#356);
#229=LINE('',#357,#358);
#230=CURVE_STYLE('',#359,POSITIVE_LENGTH_MEASURE(1.0E-006),#360);
#231=CIRCLE('',#361,6.0);
#232=POINT_STYLE(' ',#362,POSITIVE_LENGTH_MEASURE(1.0E-006),#363);
#233=CARTESIAN_POINT('',(10.0000000000001,9.32580337684876E-015,50.0));
#234=POINT_STYLE(' ',#364,POSITIVE_LENGTH_MEASURE(1.0E-006),#365);
#235=CARTESIAN_POINT('',(18.0,1.03054884599067E-014,50.0));
#236=SURFACE_STYLE_USAGE(.BOTH.,#366);
#237=FACE_OUTER_BOUND('',#367,.T.);
#238=FACE_BOUND('',#368,.T.);
#239=PLANE('',#369);
#240=SURFACE_STYLE_USAGE(.BOTH.,#370);
#241=FACE_OUTER_BOUND('',#371,.T.);
#242=CONICAL_SURFACE('',#372,19.0,0.785398163397448);
#243=CURVE_STYLE('',#373,POSITIVE_LENGTH_MEASURE(1.0E-006),#374);
#244=CIRCLE('',#375,6.0);
#245=CURVE_STYLE('',#376,POSITIVE_LENGTH_MEASURE(1.0E-006),#377);
#246=CIRCLE('',#378,20.0);
#247=CURVE_STYLE('',#379,POSITIVE_LENGTH_MEASURE(1.0E-006),#380);
#248=LINE('',#381,#382);
#249=SURFACE_STYLE_USAGE(.BOTH.,#383);
#250=FACE_OUTER_BOUND('',#384,.T.);
#251=CYLINDRICAL_SURFACE('',#385,6.0);
#252=SURFACE_STYLE_USAGE(.BOTH.,#386);
#253=FACE_OUTER_BOUND('',#387,.T.);
#254=CONICAL_SURFACE('',#388,19.0,0.785398163397448);
#255=CURVE_STYLE('',#389,POSITIVE_LENGTH_MEASURE(1.0E-006),#390);
#256=CIRCLE('',#391,10.0);
#257=CURVE_STYLE('',#392,POSITIVE_LENGTH_MEASURE(1.0E-006),#393);
#258=CIRCLE('',#394,18.0);
#259=CURVE_STYLE('',#395,POSITIVE_LENGTH_MEASURE(1.0E-006),#396);
#260=LINE('',#397,#398);
#261=CURVE_STYLE('',#399,POSITIVE_LENGTH_MEASURE(1.0E-006),#400);
#262=LINE('',#401,#402);
#263=SURFACE_STYLE_USAGE(.BOTH.,#403);
#264=FACE_OUTER_BOUND('',#404,.T.);
#265=CYLINDRICAL_SURFACE('',#405,10.0);
#266=CURVE_STYLE('',#406,POSITIVE_LENGTH_MEASURE(1.0E-006),#407);
#267=CIRCLE('',#408,20.0);
#268=POINT_STYLE(' ',#409,POSITIVE_LENGTH_MEASURE(1.0E-006),#410);
#269=CARTESIAN_POINT('',(10.0000000000001,7.73381511687967E-015,24.0));
#270=POINT_STYLE(' ',#411,POSITIVE_LENGTH_MEASURE(1.0E-006),#412);
#271=CARTESIAN_POINT('',(-9.99999999999994,7.18093473868136E-015,50.0));
#272=CURVE_STYLE('',#413,POSITIVE_LENGTH_MEASURE(1.0E-006),#414);
#273=CIRCLE('',#415,10.0);
#274=POINT_STYLE(' ',#416,POSITIVE_LENGTH_MEASURE(1.0E-006),#417);
#275=CARTESIAN_POINT('',(6.00000000000006,7.24397257535072E-015,24.0));
#276=POINT_STYLE(' ',#418,POSITIVE_LENGTH_MEASURE(1.0E-006),#419);
#277=CARTESIAN_POINT('',(6.00000000000006,5.77444495076387E-015,0.0));
#278=POINT_STYLE(' ',#420,POSITIVE_LENGTH_MEASURE(1.0E-006),#421);
#279=CARTESIAN_POINT('',(-5.99999999999994,7.54903965241937E-015,0.0));
#280=CURVE_STYLE('',#422,POSITIVE_LENGTH_MEASURE(1.0E-006),#423);
#281=CIRCLE('',#424,20.0);
#282=CURVE_STYLE('',#425,POSITIVE_LENGTH_MEASURE(1.0E-006),#426);
#283=CIRCLE('',#427,6.0);
#284=SURFACE_STYLE_USAGE(.BOTH.,#428);
#285=FACE_OUTER_BOUND('',#429,.T.);
#286=CYLINDRICAL_SURFACE('',#430,6.0);
#287=POINT_STYLE(' ',#431,POSITIVE_LENGTH_MEASURE(1.0E-006),#432);
#288=CARTESIAN_POINT('',(-9.99999999999994,7.18093473868136E-015,24.0));
#289=SURFACE_STYLE_USAGE(.BOTH.,#433);
#290=CLOSED_SHELL('',(#74,#130,#140,#128,#84,#160,#118,#108,#86,#120,#80));
#291=CURVE_STYLE('',#434,POSITIVE_LENGTH_MEASURE(1.0E-006),#435);
#292=LINE('',#436,#437);
#293=PRODUCT_CONTEXT('',#58,'mechanical');
#294=PRODUCT_DEFINITION_FORMATION_WITH_SPECIFIED_SOURCE(' ','NONE',#167,.NOT_KNOWN.);
#295=CARTESIAN_POINT('',(0.0,0.0,0.0));
#296=DIRECTION('',(0.0,0.0,1.0));
#297=DIRECTION('',(1.0,0.0,0.0));
#298= (NAMED_UNIT(#175)LENGTH_UNIT()SI_UNIT(.MILLI.,.METRE.));
#299=PRE_DEFINED_MARKER('');
#300=COLOUR_RGB('',0.509803950786591,0.509803950786591,0.588235318660736);
#301=SURFACE_SIDE_STYLE('',(#439));
#302=EDGE_LOOP('',(#440,#441,#442,#443));
#303=AXIS2_PLACEMENT_3D('',#444,#445,#446);
#304=PRE_DEFINED_MARKER('');
#305=COLOUR_RGB('',0.509803950786591,0.509803950786591,0.588235318660736);
#306=DRAUGHTING_PRE_DEFINED_CURVE_FONT('continuous');
#307=COLOUR_RGB('',0.509803950786591,0.509803950786591,0.588235318660736);
#308=CARTESIAN_POINT('',(-9.99999999999994,7.18093473868136E-015,37.0));
#309=VECTOR('',#447,1.0);
#310=SURFACE_SIDE_STYLE('',(#448));
#311=EDGE_LOOP('',(#449,#450,#451,#452));
#312=AXIS2_PLACEMENT_3D('',#453,#454,#455);
#313=DRAUGHTING_PRE_DEFINED_CURVE_FONT('continuous');
#314=COLOUR_RGB('',0.509803950786591,0.509803950786591,0.588235318660736);
#315=CARTESIAN_POINT('',(-19.9999999999999,6.26067245433634E-015,24.0));
#316=VECTOR('',#456,1.0);
#317=SURFACE_SIDE_STYLE('',(#457));
#318=EDGE_LOOP('',(#458,#459));
#319=EDGE_LOOP('',(#460,#461));
#320=AXIS2_PLACEMENT_3D('',#462,#463,#464);
#321=SURFACE_SIDE_STYLE('',(#465));
#322=EDGE_LOOP('',(#466,#467));
#323=EDGE_LOOP('',(#468,#469));
#324=AXIS2_PLACEMENT_3D('',#470,#471,#472);
#325=PRE_DEFINED_MARKER('');
#326=COLOUR_RGB('',0.509803950786591,0.509803950786591,0.588235318660736);
#327=DRAUGHTING_PRE_DEFINED_CURVE_FONT('continuous');
#328=COLOUR_RGB('',0.509803950786591,0.509803950786591,0.588235318660736);
#329=AXIS2_PLACEMENT_3D('',#473,#474,#475);
#330=DRAUGHTING_PRE_DEFINED_CURVE_FONT('continuous');
#331=COLOUR_RGB('',0.509803950786591,0.509803950786591,0.588235318660736);
#332=AXIS2_PLACEMENT_3D('',#476,#477,#478);
#333=PRE_DEFINED_MARKER('');
#334=COLOUR_RGB('',0.509803950786591,0.509803950786591,0.588235318660736);
#335=PRE_DEFINED_MARKER('');
#336=COLOUR_RGB('',0.509803950786591,0.509803950786591,0.588235318660736);
#337=PRE_DEFINED_MARKER('');
#338=COLOUR_RGB('',0.509803950786591,0.509803950786591,0.588235318660736);
#339=DRAUGHTING_PRE_DEFINED_CURVE_FONT('continuous');
#340=COLOUR_RGB('',0.509803950786591,0.509803950786591,0.588235318660736);
#341=AXIS2_PLACEMENT_3D('',#479,#480,#481);
#342=DRAUGHTING_PRE_DEFINED_CURVE_FONT('continuous');
#343=COLOUR_RGB('',0.509803950786591,0.509803950786591,0.588235318660736);
#344=CARTESIAN_POINT('',(6.00000000000006,8.6533543936334E-015,12.0));
#345=VECTOR('',#482,1.0);
#346=DRAUGHTING_PRE_DEFINED_CURVE_FONT('continuous');
#347=COLOUR_RGB('',0.509803950786591,0.509803950786591,0.588235318660736);
#348=AXIS2_PLACEMENT_3D('',#483,#484,#485);
#349=DRAUGHTING_PRE_DEFINED_CURVE_FONT('continuous');
#350=COLOUR_RGB('',0.509803950786591,0.509803950786591,0.588235318660736);
#351=AXIS2_PLACEMENT_3D('',#486,#487,#488);
#352=SURFACE_SIDE_STYLE('',(#489));
#353=EDGE_LOOP('',(#490,#491,#492,#493));
#354=AXIS2_PLACEMENT_3D('',#494,#495,#496);
#355=DRAUGHTING_PRE_DEFINED_CURVE_FONT('continuous');
#356=COLOUR_RGB('',0.509803950786591,0.509803950786591,0.588235318660736);
#357=CARTESIAN_POINT('',(10.0000000000001,9.0214593073714E-015,37.0));
#358=VECTOR('',#497,1.0);
#359=DRAUGHTING_PRE_DEFINED_CURVE_FONT('continuous');
#360=COLOUR_RGB('',0.509803950786591,0.509803950786591,0.588235318660736);
#361=AXIS2_PLACEMENT_3D('',#498,#499,#500);
#362=PRE_DEFINED_MARKER('');
#363=COLOUR_RGB('',0.509803950786591,0.509803950786591,0.588235318660736);
#364=PRE_DEFINED_MARKER('');
#365=COLOUR_RGB('',0.509803950786591,0.509803950786591,0.588235318660736);
#366=SURFACE_SIDE_STYLE('',(#501));
#367=EDGE_LOOP('',(#502,#503));
#368=EDGE_LOOP('',(#504,#505));
#369=AXIS2_PLACEMENT_3D('',#506,#507,#508);
#370=SURFACE_SIDE_STYLE('',(#509));
#371=EDGE_LOOP('',(#510,#511,#512,#513));
#372=AXIS2_PLACEMENT_3D('',#514,#515,#516);
#373=DRAUGHTING_PRE_DEFINED_CURVE_FONT('continuous');
#374=COLOUR_RGB('',0.509803950786591,0.509803950786591,0.588235318660736);
#375=AXIS2_PLACEMENT_3D('',#517,#518,#519);
#376=DRAUGHTING_PRE_DEFINED_CURVE_FONT('continuous');
#377=COLOUR_RGB('',0.509803950786591,0.509803950786591,0.588235318660736);
#378=AXIS2_PLACEMENT_3D('',#520,#521,#522);
#379=DRAUGHTING_PRE_DEFINED_CURVE_FONT('continuous');
#380=COLOUR_RGB('',0.509803950786591,0.509803950786591,0.588235318660736);
#381=CARTESIAN_POINT('',(-5.99999999999994,7.54903965241937E-015,12.0));
#382=VECTOR('',#523,1.0);
#383=SURFACE_SIDE_STYLE('',(#524));
#384=EDGE_LOOP('',(#525,#526,#527,#528));
#385=AXIS2_PLACEMENT_3D('',#529,#530,#531);
#386=SURFACE_SIDE_STYLE('',(#532));
#387=EDGE_LOOP('',(#533,#534,#535,#536));
#388=AXIS2_PLACEMENT_3D('',#537,#538,#539);
#389=DRAUGHTING_PRE_DEFINED_CURVE_FONT('continuous');
#390=COLOUR_RGB('',0.509803950786591,0.509803950786591,0.588235318660736);
#391=AXIS2_PLACEMENT_3D('',#540,#541,#542);
#392=DRAUGHTING_PRE_DEFINED_CURVE_FONT('continuous');
#393=COLOUR_RGB('',0.509803950786591,0.509803950786591,0.588235318660736);
#394=AXIS2_PLACEMENT_3D('',#543,#544,#545);
#395=DRAUGHTING_PRE_DEFINED_CURVE_FONT('continuous');
#396=COLOUR_RGB('',0.509803950786591,0.509803950786591,0.588235318660736);
#397=CARTESIAN_POINT('',(-18.9999999999999,6.35269868277085E-015,49.0));
#398=VECTOR('',#546,1.0);
#399=DRAUGHTING_PRE_DEFINED_CURVE_FONT('continuous');
#400=COLOUR_RGB('',0.509803950786591,0.509803950786591,0.588235318660736);
#401=CARTESIAN_POINT('',(19.0,9.84969536328192E-015,49.0));
#402=VECTOR('',#547,1.0);
#403=SURFACE_SIDE_STYLE('',(#548));
#404=EDGE_LOOP('',(#549,#550,#551,#552));
#405=AXIS2_PLACEMENT_3D('',#553,#554,#555);
#406=DRAUGHTING_PRE_DEFINED_CURVE_FONT('continuous');
#407=COLOUR_RGB('',0.509803950786591,0.509803950786591,0.588235318660736);
#408=AXIS2_PLACEMENT_3D('',#556,#557,#558);
#409=PRE_DEFINED_MARKER('');
#410=COLOUR_RGB('',0.509803950786591,0.509803950786591,0.588235318660736);
#411=PRE_DEFINED_MARKER('');
#412=COLOUR_RGB('',0.509803950786591,0.509803950786591,0.588235318660736);
#413=DRAUGHTING_PRE_DEFINED_CURVE_FONT('continuous');
#414=COLOUR_RGB('',0.509803950786591,0.509803950786591,0.588235318660736);
#415=AXIS2_PLACEMENT_3D('',#559,#560,#561);
#416=PRE_DEFINED_MARKER('');
#417=COLOUR_RGB('',0.509803950786591,0.509803950786591,0.588235318660736);
#418=PRE_DEFINED_MARKER('');
#419=COLOUR_RGB('',0.509803950786591,0.509803950786591,0.588235318660736);
#420=PRE_DEFINED_MARKER('');
#421=COLOUR_RGB('',0.509803950786591,0.509803950786591,0.588235318660736);
#422=DRAUGHTING_PRE_DEFINED_CURVE_FONT('continuous');
#423=COLOUR_RGB('',0.509803950786591,0.509803950786591,0.588235318660736);
#424=AXIS2_PLACEMENT_3D('',#562,#563,#564);
#425=DRAUGHTING_PRE_DEFINED_CURVE_FONT('continuous');
#426=COLOUR_RGB('',0.509803950786591,0.509803950786591,0.588235318660736);
#427=AXIS2_PLACEMENT_3D('',#565,#566,#567);
#428=SURFACE_SIDE_STYLE('',(#568));
#429=EDGE_LOOP('',(#569,#570,#571,#572));
#430=AXIS2_PLACEMENT_3D('',#573,#574,#575);
#431=PRE_DEFINED_MARKER('');
#432=COLOUR_RGB('',0.509803950786591,0.509803950786591,0.588235318660736);
#433=SURFACE_SIDE_STYLE('',(#576));
#434=DRAUGHTING_PRE_DEFINED_CURVE_FONT('continuous');
#435=COLOUR_RGB('',0.509803950786591,0.509803950786591,0.588235318660736);
#436=CARTESIAN_POINT('',(20.0,9.94172159171642E-015,24.0));
#437=VECTOR('',#577,1.0);
#439=SURFACE_STYLE_FILL_AREA(#578);
#440=ORIENTED_EDGE('',*,*,#166,.F.);
#441=ORIENTED_EDGE('',*,*,#100,.T.);
#442=ORIENTED_EDGE('',*,*,#82,.F.);
#443=ORIENTED_EDGE('',*,*,#142,.F.);
#444=CARTESIAN_POINT('',(5.6843418860808E-014,8.10119702302638E-015,24.0));
#445=DIRECTION('',(-0.0,-0.0,1.0));
#446=DIRECTION('',(1.0,-3.04344069477356E-017,0.0));
#447=DIRECTION('',(-0.0,-0.0,1.0));
#448=SURFACE_STYLE_FILL_AREA(#579);
#449=ORIENTED_EDGE('',*,*,#166,.T.);
#450=ORIENTED_EDGE('',*,*,#156,.F.);
#451=ORIENTED_EDGE('',*,*,#82,.T.);
#452=ORIENTED_EDGE('',*,*,#124,.T.);
#453=CARTESIAN_POINT('',(5.6843418860808E-014,8.10119702302638E-015,24.0));
#454=DIRECTION('',(-0.0,-0.0,1.0));
#455=DIRECTION('',(1.0,-3.04344069477356E-017,0.0));
#456=DIRECTION('',(-0.0,-0.0,1.0));
#457=SURFACE_STYLE_FILL_AREA(#580);
#458=ORIENTED_EDGE('',*,*,#122,.F.);
#459=ORIENTED_EDGE('',*,*,#104,.F.);
#460=ORIENTED_EDGE('',*,*,#142,.T.);
#461=ORIENTED_EDGE('',*,*,#156,.T.);
#462=CARTESIAN_POINT('',(13.0,6.63166939843953E-015,-1.4210854715202E-014));
#463=DIRECTION('',(0.0,0.0,-1.0));
#464=DIRECTION('',(1.0,1.22460635382238E-016,0.0));
#465=SURFACE_STYLE_FILL_AREA(#581);
#466=ORIENTED_EDGE('',*,*,#134,.F.);
#467=ORIENTED_EDGE('',*,*,#90,.F.);
#468=ORIENTED_EDGE('',*,*,#106,.T.);
#469=ORIENTED_EDGE('',*,*,#132,.T.);
#470=CARTESIAN_POINT('',(14.0,9.81564591837771E-015,50.0));
#471=DIRECTION('',(0.0,0.0,1.0));
#472=DIRECTION('',(-1.0,-1.22460635382238E-016,0.0));
#473=CARTESIAN_POINT('',(5.6843418860808E-014,8.10119702302638E-015,50.0));
#474=DIRECTION('',(0.0,0.0,-1.0));
#475=DIRECTION('',(1.0,-3.04344069477356E-017,0.0));
#476=CARTESIAN_POINT('',(5.6843418860808E-014,8.10119702302638E-015,24.0));
#477=DIRECTION('',(0.0,0.0,-1.0));
#478=DIRECTION('',(1.0,-3.04344069477356E-017,0.0));
#479=CARTESIAN_POINT('',(5.6843418860808E-014,8.10119702302638E-015,48.0));
#480=DIRECTION('',(0.0,0.0,-1.0));
#481=DIRECTION('',(1.0,-3.04344069477356E-017,0.0));
#482=DIRECTION('',(-0.0,-0.0,-1.0));
#483=CARTESIAN_POINT('',(5.6843418860808E-014,8.10119702302638E-015,0.0));
#484=DIRECTION('',(0.0,0.0,-1.0));
#485=DIRECTION('',(1.0,-3.04344069477356E-017,0.0));
#486=CARTESIAN_POINT('',(5.6843418860808E-014,8.10119702302638E-015,50.0));
#487=DIRECTION('',(0.0,0.0,-1.0));
#488=DIRECTION('',(1.0,-3.04344069477356E-017,0.0));
#489=SURFACE_STYLE_FILL_AREA(#582);
#490=ORIENTED_EDGE('',*,*,#110,.T.);
#491=ORIENTED_EDGE('',*,*,#92,.T.);
#492=ORIENTED_EDGE('',*,*,#78,.T.);
#493=ORIENTED_EDGE('',*,*,#106,.F.);
#494=CARTESIAN_POINT('',(5.6843418860808E-014,8.10119702302638E-015,37.0));
#495=DIRECTION('',(-0.0,-0.0,1.0));
#496=DIRECTION('',(1.0,-3.04344069477356E-017,0.0));
#497=DIRECTION('',(-0.0,-0.0,-1.0));
#498=CARTESIAN_POINT('',(5.6843418860808E-014,8.10119702302638E-015,24.0));
#499=DIRECTION('',(0.0,0.0,-1.0));
#500=DIRECTION('',(1.0,-3.04344069477356E-017,0.0));
#501=SURFACE_STYLE_FILL_AREA(#583);
#502=ORIENTED_EDGE('',*,*,#92,.F.);
#503=ORIENTED_EDGE('',*,*,#148,.F.);
#504=ORIENTED_EDGE('',*,*,#158,.T.);
#505=ORIENTED_EDGE('',*,*,#112,.T.);
#506=CARTESIAN_POINT('',(8.00000000000006,7.48889384611519E-015,24.0));
#507=DIRECTION('',(0.0,0.0,1.0));
#508=DIRECTION('',(-1.0,-1.22460635382238E-016,0.0));
#509=SURFACE_STYLE_FILL_AREA(#584);
#510=ORIENTED_EDGE('',*,*,#138,.T.);
#511=ORIENTED_EDGE('',*,*,#124,.F.);
#512=ORIENTED_EDGE('',*,*,#136,.T.);
#513=ORIENTED_EDGE('',*,*,#90,.T.);
#514=CARTESIAN_POINT('',(5.6843418860808E-014,8.10119702302638E-015,49.0));
#515=DIRECTION('',(0.0,-0.0,-1.0));
#516=DIRECTION('',(1.0,-3.04344069477357E-017,0.0));
#517=CARTESIAN_POINT('',(5.6843418860808E-014,8.10119702302638E-015,0.0));
#518=DIRECTION('',(0.0,0.0,-1.0));
#519=DIRECTION('',(1.0,-3.04344069477356E-017,0.0));
#520=CARTESIAN_POINT('',(5.6843418860808E-014,8.10119702302638E-015,48.0));
#521=DIRECTION('',(0.0,0.0,-1.0));
#522=DIRECTION('',(1.0,-3.04344069477356E-017,0.0));
#523=DIRECTION('',(-0.0,-0.0,1.0));
#524=SURFACE_STYLE_FILL_AREA(#585);
#525=ORIENTED_EDGE('',*,*,#102,.F.);
#526=ORIENTED_EDGE('',*,*,#112,.F.);
#527=ORIENTED_EDGE('',*,*,#126,.F.);
#528=ORIENTED_EDGE('',*,*,#104,.T.);
#529=CARTESIAN_POINT('',(5.6843418860808E-014,8.10119702302638E-015,12.0));
#530=DIRECTION('',(-0.0,-0.0,1.0));
#531=DIRECTION('',(1.0,-3.04344069477356E-017,0.0));
#532=SURFACE_STYLE_FILL_AREA(#586);
#533=ORIENTED_EDGE('',*,*,#138,.F.);
#534=ORIENTED_EDGE('',*,*,#134,.T.);
#535=ORIENTED_EDGE('',*,*,#136,.F.);
#536=ORIENTED_EDGE('',*,*,#100,.F.);
#537=CARTESIAN_POINT('',(5.6843418860808E-014,8.10119702302638E-015,49.0));
#538=DIRECTION('',(0.0,-0.0,-1.0));
#539=DIRECTION('',(1.0,-3.04344069477357E-017,0.0));
#540=CARTESIAN_POINT('',(5.6843418860808E-014,8.10119702302638E-015,50.0));
#541=DIRECTION('',(0.0,0.0,-1.0));
#542=DIRECTION('',(1.0,-3.04344069477356E-017,0.0));
#543=CARTESIAN_POINT('',(5.6843418860808E-014,8.10119702302638E-015,50.0));
#544=DIRECTION('',(0.0,0.0,-1.0));
#545=DIRECTION('',(1.0,-3.04344069477356E-017,0.0));
#546=DIRECTION('',(0.707106781186548,6.50723701730587E-017,0.707106781186547));
#547=DIRECTION('',(0.707106781186548,6.50723701730587E-017,-0.707106781186547));
#548=SURFACE_STYLE_FILL_AREA(#587);
#549=ORIENTED_EDGE('',*,*,#110,.F.);
#550=ORIENTED_EDGE('',*,*,#132,.F.);
#551=ORIENTED_EDGE('',*,*,#78,.F.);
#552=ORIENTED_EDGE('',*,*,#148,.T.);
#553=CARTESIAN_POINT('',(5.6843418860808E-014,8.10119702302638E-015,37.0));
#554=DIRECTION('',(-0.0,-0.0,1.0));
#555=DIRECTION('',(1.0,-3.04344069477356E-017,0.0));
#556=CARTESIAN_POINT('',(5.6843418860808E-014,8.10119702302638E-015,-2.8421709430404E-014));
#557=DIRECTION('',(0.0,0.0,-1.0));
#558=DIRECTION('',(1.0,-3.04344069477356E-017,0.0));
#559=CARTESIAN_POINT('',(5.6843418860808E-014,8.10119702302638E-015,24.0));
#560=DIRECTION('',(0.0,0.0,-1.0));
#561=DIRECTION('',(1.0,-3.04344069477356E-017,0.0));
#562=CARTESIAN_POINT('',(5.6843418860808E-014,8.10119702302638E-015,-2.8421709430404E-014));
#563=DIRECTION('',(0.0,0.0,-1.0));
#564=DIRECTION('',(1.0,-3.04344069477356E-017,0.0));
#565=CARTESIAN_POINT('',(5.6843418860808E-014,8.10119702302638E-015,24.0));
#566=DIRECTION('',(0.0,0.0,-1.0));
#567=DIRECTION('',(1.0,-3.04344069477356E-017,0.0));
#568=SURFACE_STYLE_FILL_AREA(#588);
#569=ORIENTED_EDGE('',*,*,#102,.T.);
#570=ORIENTED_EDGE('',*,*,#122,.T.);
#571=ORIENTED_EDGE('',*,*,#126,.T.);
#572=ORIENTED_EDGE('',*,*,#158,.F.);
#573=CARTESIAN_POINT('',(5.6843418860808E-014,8.10119702302638E-015,12.0));
#574=DIRECTION('',(-0.0,-0.0,1.0));
#575=DIRECTION('',(1.0,-3.04344069477356E-017,0.0));
#576=SURFACE_STYLE_FILL_AREA(#589);
#577=DIRECTION('',(0.0,0.0,-1.0));
#578=FILL_AREA_STYLE('',(#590));
#579=FILL_AREA_STYLE('',(#591));
#580=FILL_AREA_STYLE('',(#592));
#581=FILL_AREA_STYLE('',(#593));
#582=FILL_AREA_STYLE('',(#594));
#583=FILL_AREA_STYLE('',(#595));
#584=FILL_AREA_STYLE('',(#596));
#585=FILL_AREA_STYLE('',(#597));
#586=FILL_AREA_STYLE('',(#598));
#587=FILL_AREA_STYLE('',(#599));
#588=FILL_AREA_STYLE('',(#600));
#589=FILL_AREA_STYLE('',(#601));
#590=FILL_AREA_STYLE_COLOUR('',#602);
#591=FILL_AREA_STYLE_COLOUR('',#603);
#592=FILL_AREA_STYLE_COLOUR('',#604);
#593=FILL_AREA_STYLE_COLOUR('',#605);
#594=FILL_AREA_STYLE_COLOUR('',#606);
#595=FILL_AREA_STYLE_COLOUR('',#607);
#596=FILL_AREA_STYLE_COLOUR('',#608);
#597=FILL_AREA_STYLE_COLOUR('',#609);
#598=FILL_AREA_STYLE_COLOUR('',#610);
#599=FILL_AREA_STYLE_COLOUR('',#611);
#600=FILL_AREA_STYLE_COLOUR('',#612);
#601=FILL_AREA_STYLE_COLOUR('',#613);
#602=COLOUR_RGB('',0.509803950786591,0.509803950786591,0.588235318660736);
#603=COLOUR_RGB('',0.509803950786591,0.509803950786591,0.588235318660736);
#604=COLOUR_RGB('',0.509803950786591,0.509803950786591,0.588235318660736);
#605=COLOUR_RGB('',0.509803950786591,0.509803950786591,0.588235318660736);
#606=COLOUR_RGB('',0.509803950786591,0.509803950786591,0.588235318660736);
#607=COLOUR_RGB('',0.509803950786591,0.509803950786591,0.588235318660736);
#608=COLOUR_RGB('',0.509803950786591,0.509803950786591,0.588235318660736);
#609=COLOUR_RGB('',0.509803950786591,0.509803950786591,0.588235318660736);
#610=COLOUR_RGB('',0.509803950786591,0.509803950786591,0.588235318660736);
#611=COLOUR_RGB('',0.509803950786591,0.509803950786591,0.588235318660736);
#612=COLOUR_RGB('',0.509803950786591,0.509803950786591,0.588235318660736);
#613=COLOUR_RGB('',0.509803950786591,0.509803950786591,0.588235318660736);
ENDSEC;
END-ISO-10303-21;
