ISO-10303-21;
HEADER;
FILE_DESCRIPTION(('STEP AP214'),'1');
FILE_NAME(' ','  ',('TraceParts'),('TraceParts S.A.'),'XStep 1.0',' ',' ');
FILE_SCHEMA(('automotive_design'));
ENDSEC;
DATA;
#1=MECHANICAL_DESIGN_GEOMETRIC_PRESENTATION_REPRESENTATION(' ',(#10,#11,#12,#13,#14,#15,#16,#17,#18,#19,#20,#21,#22,#23,#24,#25,#26,#27,#28,#29,#30,#31,#32,#33,#34,#35),#6);
#2=PRODUCT_DEFINITION_CONTEXT('',#36,'design');
#3=APPLICATION_PROTOCOL_DEFINITION('INTERNATIONAL STANDARD','automotive_design',1994,#36);
#4=PRODUCT_CATEGORY_RELATIONSHIP('NONE','NONE',#37,#38);
#5=SHAPE_DEFINITION_REPRESENTATION(#39,#40);
#6= (GEOMETRIC_REPRESENTATION_CONTEXT(3)GLOBAL_UNCERTAINTY_ASSIGNED_CONTEXT((#43))GLOBAL_UNIT_ASSIGNED_CONTEXT((#45,#46,#47))REPRESENTATION_CONTEXT('NONE','WORKSPACE'));
#10=STYLED_ITEM('',(#49),#50);
#11=STYLED_ITEM('',(#51),#52);
#12=STYLED_ITEM('',(#53),#54);
#13=STYLED_ITEM('',(#55),#56);
#14=STYLED_ITEM('',(#57),#58);
#15=STYLED_ITEM('',(#59),#60);
#16=STYLED_ITEM('',(#61),#62);
#17=STYLED_ITEM('',(#63),#64);
#18=STYLED_ITEM('',(#65),#66);
#19=STYLED_ITEM('',(#67),#68);
#20=STYLED_ITEM('',(#69),#70);
#21=STYLED_ITEM('',(#71),#72);
#22=STYLED_ITEM('',(#73),#74);
#23=STYLED_ITEM('',(#75),#76);
#24=STYLED_ITEM('',(#77),#78);
#25=STYLED_ITEM('',(#79),#80);
#26=STYLED_ITEM('',(#81),#82);
#27=STYLED_ITEM('',(#83),#84);
#28=STYLED_ITEM('',(#85),#86);
#29=STYLED_ITEM('',(#87),#88);
#30=STYLED_ITEM('',(#89),#90);
#31=STYLED_ITEM('',(#91),#92);
#32=STYLED_ITEM('',(#93),#94);
#33=STYLED_ITEM('',(#95),#96);
#34=STYLED_ITEM('',(#97),#98);
#35=STYLED_ITEM('',(#99),#100);
#36=APPLICATION_CONTEXT(' ');
#37=PRODUCT_CATEGORY('part','NONE');
#38=PRODUCT_RELATED_PRODUCT_CATEGORY('detail',' ',(#101));
#39=PRODUCT_DEFINITION_SHAPE('NONE','NONE',#102);
#40=ADVANCED_BREP_SHAPE_REPRESENTATION('1',(#103,#104),#6);
#43=UNCERTAINTY_MEASURE_WITH_UNIT(LENGTH_MEASURE(1.0E-006),#45,'','');
#45= (CONVERSION_BASED_UNIT('MILLIMETRE',#107)LENGTH_UNIT()NAMED_UNIT(#110));
#46= (NAMED_UNIT(#112)PLANE_ANGLE_UNIT()SI_UNIT($,.RADIAN.));
#47= (NAMED_UNIT(#112)SOLID_ANGLE_UNIT()SI_UNIT($,.STERADIAN.));
#49=PRESENTATION_STYLE_ASSIGNMENT((#118));
#50=ADVANCED_FACE('',(#119,#120),#121,.F.);
#51=PRESENTATION_STYLE_ASSIGNMENT((#122));
#52=EDGE_CURVE('',#70,#58,#123,.T.);
#53=PRESENTATION_STYLE_ASSIGNMENT((#124));
#54=EDGE_CURVE('',#88,#78,#125,.T.);
#55=PRESENTATION_STYLE_ASSIGNMENT((#126));
#56=EDGE_CURVE('',#78,#86,#127,.T.);
#57=PRESENTATION_STYLE_ASSIGNMENT((#128));
#58=VERTEX_POINT('',#129);
#59=PRESENTATION_STYLE_ASSIGNMENT((#130));
#60=VERTEX_POINT('',#131);
#61=PRESENTATION_STYLE_ASSIGNMENT((#132));
#62=ADVANCED_FACE('',(#133),#134,.F.);
#63=PRESENTATION_STYLE_ASSIGNMENT((#135));
#64=EDGE_CURVE('',#58,#76,#136,.T.);
#65=PRESENTATION_STYLE_ASSIGNMENT((#137));
#66=ADVANCED_FACE('',(#138),#139,.T.);
#67=PRESENTATION_STYLE_ASSIGNMENT((#140));
#68=EDGE_CURVE('',#86,#78,#141,.T.);
#69=PRESENTATION_STYLE_ASSIGNMENT((#142));
#70=VERTEX_POINT('',#143);
#71=PRESENTATION_STYLE_ASSIGNMENT((#144));
#72=EDGE_CURVE('',#60,#88,#145,.T.);
#73=PRESENTATION_STYLE_ASSIGNMENT((#146));
#74=EDGE_CURVE('',#60,#86,#147,.T.);
#75=PRESENTATION_STYLE_ASSIGNMENT((#148));
#76=VERTEX_POINT('',#149);
#77=PRESENTATION_STYLE_ASSIGNMENT((#150));
#78=VERTEX_POINT('',#151);
#79=PRESENTATION_STYLE_ASSIGNMENT((#152));
#80=ADVANCED_FACE('',(#153,#154),#155,.T.);
#81=PRESENTATION_STYLE_ASSIGNMENT((#156));
#82=ADVANCED_FACE('',(#157),#158,.T.);
#83=PRESENTATION_STYLE_ASSIGNMENT((#159));
#84=EDGE_CURVE('',#96,#70,#160,.T.);
#85=PRESENTATION_STYLE_ASSIGNMENT((#161));
#86=VERTEX_POINT('',#162);
#87=PRESENTATION_STYLE_ASSIGNMENT((#163));
#88=VERTEX_POINT('',#164);
#89=PRESENTATION_STYLE_ASSIGNMENT((#165));
#90=EDGE_CURVE('',#76,#58,#166,.T.);
#91=PRESENTATION_STYLE_ASSIGNMENT((#167));
#92=EDGE_CURVE('',#70,#96,#168,.T.);
#93=PRESENTATION_STYLE_ASSIGNMENT((#169));
#94=ADVANCED_FACE('',(#170),#171,.F.);
#95=PRESENTATION_STYLE_ASSIGNMENT((#172));
#96=VERTEX_POINT('',#173);
#97=PRESENTATION_STYLE_ASSIGNMENT((#174));
#98=EDGE_CURVE('',#96,#76,#175,.T.);
#99=PRESENTATION_STYLE_ASSIGNMENT((#176));
#100=EDGE_CURVE('',#88,#60,#177,.T.);
#101=PRODUCT('1','1','PART-1-DESC',(#178));
#102=PRODUCT_DEFINITION('NONE','NONE',#179,#2);
#103=MANIFOLD_SOLID_BREP('1',#180);
#104=AXIS2_PLACEMENT_3D('',#181,#182,#183);
#107=LENGTH_MEASURE_WITH_UNIT(LENGTH_MEASURE(1.0),#184);
#110=DIMENSIONAL_EXPONENTS(1.0,0.0,0.0,0.0,0.0,0.0,0.0);
#112=DIMENSIONAL_EXPONENTS(0.0,0.0,0.0,0.0,0.0,0.0,0.0);
#118=SURFACE_STYLE_USAGE(.BOTH.,#185);
#119=FACE_OUTER_BOUND('',#186,.T.);
#120=FACE_BOUND('',#187,.T.);
#121=PLANE('',#188);
#122=CURVE_STYLE('',#189,POSITIVE_LENGTH_MEASURE(1.0E-006),#190);
#123=LINE('',#191,#192);
#124=CURVE_STYLE('',#193,POSITIVE_LENGTH_MEASURE(1.0E-006),#194);
#125=LINE('',#195,#196);
#126=CURVE_STYLE('',#197,POSITIVE_LENGTH_MEASURE(1.0E-006),#198);
#127=CIRCLE('',#199,4.25);
#128=POINT_STYLE(' ',#200,POSITIVE_LENGTH_MEASURE(1.0E-006),#201);
#129=CARTESIAN_POINT('',(19.75,0.0,4.0));
#130=POINT_STYLE(' ',#202,POSITIVE_LENGTH_MEASURE(1.0E-006),#203);
#131=CARTESIAN_POINT('',(4.25,0.0,0.0));
#132=SURFACE_STYLE_USAGE(.BOTH.,#204);
#133=FACE_OUTER_BOUND('',#205,.T.);
#134=CYLINDRICAL_SURFACE('',#206,4.25);
#135=CURVE_STYLE('',#207,POSITIVE_LENGTH_MEASURE(1.0E-006),#208);
#136=CIRCLE('',#209,19.75);
#137=SURFACE_STYLE_USAGE(.BOTH.,#210);
#138=FACE_OUTER_BOUND('',#211,.T.);
#139=CYLINDRICAL_SURFACE('',#212,19.75);
#140=CURVE_STYLE('',#213,POSITIVE_LENGTH_MEASURE(1.0E-006),#214);
#141=CIRCLE('',#215,4.25);
#142=POINT_STYLE(' ',#216,POSITIVE_LENGTH_MEASURE(1.0E-006),#217);
#143=CARTESIAN_POINT('',(19.75,0.0,0.0));
#144=CURVE_STYLE('',#218,POSITIVE_LENGTH_MEASURE(1.0E-006),#219);
#145=CIRCLE('',#220,4.25);
#146=CURVE_STYLE('',#221,POSITIVE_LENGTH_MEASURE(1.0E-006),#222);
#147=LINE('',#223,#224);
#148=POINT_STYLE(' ',#225,POSITIVE_LENGTH_MEASURE(1.0E-006),#226);
#149=CARTESIAN_POINT('',(-19.75,2.4185975487992E-015,4.0));
#150=POINT_STYLE(' ',#227,POSITIVE_LENGTH_MEASURE(1.0E-006),#228);
#151=CARTESIAN_POINT('',(-4.25,5.2045770037451E-016,4.0));
#152=SURFACE_STYLE_USAGE(.BOTH.,#229);
#153=FACE_OUTER_BOUND('',#230,.T.);
#154=FACE_BOUND('',#231,.T.);
#155=PLANE('',#232);
#156=SURFACE_STYLE_USAGE(.BOTH.,#233);
#157=FACE_OUTER_BOUND('',#234,.T.);
#158=CYLINDRICAL_SURFACE('',#235,19.75);
#159=CURVE_STYLE('',#236,POSITIVE_LENGTH_MEASURE(1.0E-006),#237);
#160=CIRCLE('',#238,19.75);
#161=POINT_STYLE(' ',#239,POSITIVE_LENGTH_MEASURE(1.0E-006),#240);
#162=CARTESIAN_POINT('',(4.25,0.0,4.0));
#163=POINT_STYLE(' ',#241,POSITIVE_LENGTH_MEASURE(1.0E-006),#242);
#164=CARTESIAN_POINT('',(-4.25,5.2045770037451E-016,0.0));
#165=CURVE_STYLE('',#243,POSITIVE_LENGTH_MEASURE(1.0E-006),#244);
#166=CIRCLE('',#245,19.75);
#167=CURVE_STYLE('',#246,POSITIVE_LENGTH_MEASURE(1.0E-006),#247);
#168=CIRCLE('',#248,19.75);
#169=SURFACE_STYLE_USAGE(.BOTH.,#249);
#170=FACE_OUTER_BOUND('',#250,.T.);
#171=CYLINDRICAL_SURFACE('',#251,4.25);
#172=POINT_STYLE(' ',#252,POSITIVE_LENGTH_MEASURE(1.0E-006),#253);
#173=CARTESIAN_POINT('',(-19.75,2.4185975487992E-015,0.0));
#174=CURVE_STYLE('',#254,POSITIVE_LENGTH_MEASURE(1.0E-006),#255);
#175=LINE('',#256,#257);
#176=CURVE_STYLE('',#258,POSITIVE_LENGTH_MEASURE(1.0E-006),#259);
#177=CIRCLE('',#260,4.25);
#178=PRODUCT_CONTEXT('',#36,'mechanical');
#179=PRODUCT_DEFINITION_FORMATION_WITH_SPECIFIED_SOURCE(' ','NONE',#101,.NOT_KNOWN.);
#180=CLOSED_SHELL('',(#66,#50,#80,#82,#94,#62));
#181=CARTESIAN_POINT('',(0.0,0.0,0.0));
#182=DIRECTION('',(0.0,0.0,1.0));
#183=DIRECTION('',(1.0,0.0,0.0));
#184= (NAMED_UNIT(#110)LENGTH_UNIT()SI_UNIT(.MILLI.,.METRE.));
#185=SURFACE_SIDE_STYLE('',(#262));
#186=EDGE_LOOP('',(#263,#264));
#187=EDGE_LOOP('',(#265,#266));
#188=AXIS2_PLACEMENT_3D('',#267,#268,#269);
#189=DRAUGHTING_PRE_DEFINED_CURVE_FONT('continuous');
#190=COLOUR_RGB('',0.505882382392883,0.505882382392883,0.584313750267029);
#191=CARTESIAN_POINT('',(19.75,0.0,0.0));
#192=VECTOR('',#270,1000.0);
#193=DRAUGHTING_PRE_DEFINED_CURVE_FONT('continuous');
#194=COLOUR_RGB('',0.505882382392883,0.505882382392883,0.584313750267029);
#195=CARTESIAN_POINT('',(-4.25,5.2045770037451E-016,0.0));
#196=VECTOR('',#271,1000.0);
#197=DRAUGHTING_PRE_DEFINED_CURVE_FONT('continuous');
#198=COLOUR_RGB('',0.505882382392883,0.505882382392883,0.584313750267029);
#199=AXIS2_PLACEMENT_3D('',#272,#273,#274);
#200=PRE_DEFINED_MARKER('');
#201=COLOUR_RGB('',0.505882382392883,0.505882382392883,0.584313750267029);
#202=PRE_DEFINED_MARKER('');
#203=COLOUR_RGB('',0.505882382392883,0.505882382392883,0.584313750267029);
#204=SURFACE_SIDE_STYLE('',(#275));
#205=EDGE_LOOP('',(#276,#277,#278,#279));
#206=AXIS2_PLACEMENT_3D('',#280,#281,#282);
#207=DRAUGHTING_PRE_DEFINED_CURVE_FONT('continuous');
#208=COLOUR_RGB('',0.505882382392883,0.505882382392883,0.584313750267029);
#209=AXIS2_PLACEMENT_3D('',#283,#284,#285);
#210=SURFACE_SIDE_STYLE('',(#286));
#211=EDGE_LOOP('',(#287,#288,#289,#290));
#212=AXIS2_PLACEMENT_3D('',#291,#292,#293);
#213=DRAUGHTING_PRE_DEFINED_CURVE_FONT('continuous');
#214=COLOUR_RGB('',0.505882382392883,0.505882382392883,0.584313750267029);
#215=AXIS2_PLACEMENT_3D('',#294,#295,#296);
#216=PRE_DEFINED_MARKER('');
#217=COLOUR_RGB('',0.505882382392883,0.505882382392883,0.584313750267029);
#218=DRAUGHTING_PRE_DEFINED_CURVE_FONT('continuous');
#219=COLOUR_RGB('',0.505882382392883,0.505882382392883,0.584313750267029);
#220=AXIS2_PLACEMENT_3D('',#297,#298,#299);
#221=DRAUGHTING_PRE_DEFINED_CURVE_FONT('continuous');
#222=COLOUR_RGB('',0.505882382392883,0.505882382392883,0.584313750267029);
#223=CARTESIAN_POINT('',(4.25,0.0,0.0));
#224=VECTOR('',#300,1000.0);
#225=PRE_DEFINED_MARKER('');
#226=COLOUR_RGB('',0.505882382392883,0.505882382392883,0.584313750267029);
#227=PRE_DEFINED_MARKER('');
#228=COLOUR_RGB('',0.505882382392883,0.505882382392883,0.584313750267029);
#229=SURFACE_SIDE_STYLE('',(#301));
#230=EDGE_LOOP('',(#302,#303));
#231=EDGE_LOOP('',(#304,#305));
#232=AXIS2_PLACEMENT_3D('',#306,#307,#308);
#233=SURFACE_SIDE_STYLE('',(#309));
#234=EDGE_LOOP('',(#310,#311,#312,#313));
#235=AXIS2_PLACEMENT_3D('',#314,#315,#316);
#236=DRAUGHTING_PRE_DEFINED_CURVE_FONT('continuous');
#237=COLOUR_RGB('',0.505882382392883,0.505882382392883,0.584313750267029);
#238=AXIS2_PLACEMENT_3D('',#317,#318,#319);
#239=PRE_DEFINED_MARKER('');
#240=COLOUR_RGB('',0.505882382392883,0.505882382392883,0.584313750267029);
#241=PRE_DEFINED_MARKER('');
#242=COLOUR_RGB('',0.505882382392883,0.505882382392883,0.584313750267029);
#243=DRAUGHTING_PRE_DEFINED_CURVE_FONT('continuous');
#244=COLOUR_RGB('',0.505882382392883,0.505882382392883,0.584313750267029);
#245=AXIS2_PLACEMENT_3D('',#320,#321,#322);
#246=DRAUGHTING_PRE_DEFINED_CURVE_FONT('continuous');
#247=COLOUR_RGB('',0.505882382392883,0.505882382392883,0.584313750267029);
#248=AXIS2_PLACEMENT_3D('',#323,#324,#325);
#249=SURFACE_SIDE_STYLE('',(#326));
#250=EDGE_LOOP('',(#327,#328,#329,#330));
#251=AXIS2_PLACEMENT_3D('',#331,#332,#333);
#252=PRE_DEFINED_MARKER('');
#253=COLOUR_RGB('',0.505882382392883,0.505882382392883,0.584313750267029);
#254=DRAUGHTING_PRE_DEFINED_CURVE_FONT('continuous');
#255=COLOUR_RGB('',0.505882382392883,0.505882382392883,0.584313750267029);
#256=CARTESIAN_POINT('',(-19.75,2.4185975487992E-015,0.0));
#257=VECTOR('',#334,1000.0);
#258=DRAUGHTING_PRE_DEFINED_CURVE_FONT('continuous');
#259=COLOUR_RGB('',0.505882382392883,0.505882382392883,0.584313750267029);
#260=AXIS2_PLACEMENT_3D('',#335,#336,#337);
#262=SURFACE_STYLE_FILL_AREA(#338);
#263=ORIENTED_EDGE('',*,*,#92,.F.);
#264=ORIENTED_EDGE('',*,*,#84,.F.);
#265=ORIENTED_EDGE('',*,*,#72,.F.);
#266=ORIENTED_EDGE('',*,*,#100,.F.);
#267=CARTESIAN_POINT('',(0.0,0.0,0.0));
#268=DIRECTION('',(0.0,0.0,1.0));
#269=DIRECTION('',(1.0,0.0,0.0));
#270=DIRECTION('',(0.0,0.0,1.0));
#271=DIRECTION('',(0.0,0.0,1.0));
#272=CARTESIAN_POINT('',(0.0,0.0,4.0));
#273=DIRECTION('',(0.0,0.0,-1.0));
#274=DIRECTION('',(1.0,0.0,0.0));
#275=SURFACE_STYLE_FILL_AREA(#339);
#276=ORIENTED_EDGE('',*,*,#72,.T.);
#277=ORIENTED_EDGE('',*,*,#54,.T.);
#278=ORIENTED_EDGE('',*,*,#68,.F.);
#279=ORIENTED_EDGE('',*,*,#74,.F.);
#280=CARTESIAN_POINT('',(0.0,0.0,0.0));
#281=DIRECTION('',(-0.0,-0.0,-1.0));
#282=DIRECTION('',(1.0,0.0,0.0));
#283=CARTESIAN_POINT('',(0.0,0.0,4.0));
#284=DIRECTION('',(0.0,0.0,-1.0));
#285=DIRECTION('',(1.0,0.0,0.0));
#286=SURFACE_STYLE_FILL_AREA(#340);
#287=ORIENTED_EDGE('',*,*,#98,.F.);
#288=ORIENTED_EDGE('',*,*,#84,.T.);
#289=ORIENTED_EDGE('',*,*,#52,.T.);
#290=ORIENTED_EDGE('',*,*,#64,.T.);
#291=CARTESIAN_POINT('',(0.0,0.0,0.0));
#292=DIRECTION('',(-0.0,-0.0,-1.0));
#293=DIRECTION('',(1.0,0.0,0.0));
#294=CARTESIAN_POINT('',(0.0,0.0,4.0));
#295=DIRECTION('',(0.0,0.0,-1.0));
#296=DIRECTION('',(1.0,0.0,0.0));
#297=CARTESIAN_POINT('',(0.0,0.0,0.0));
#298=DIRECTION('',(0.0,0.0,-1.0));
#299=DIRECTION('',(1.0,0.0,0.0));
#300=DIRECTION('',(0.0,0.0,1.0));
#301=SURFACE_STYLE_FILL_AREA(#341);
#302=ORIENTED_EDGE('',*,*,#64,.F.);
#303=ORIENTED_EDGE('',*,*,#90,.F.);
#304=ORIENTED_EDGE('',*,*,#68,.T.);
#305=ORIENTED_EDGE('',*,*,#56,.T.);
#306=CARTESIAN_POINT('',(0.0,0.0,4.0));
#307=DIRECTION('',(0.0,0.0,1.0));
#308=DIRECTION('',(1.0,0.0,0.0));
#309=SURFACE_STYLE_FILL_AREA(#342);
#310=ORIENTED_EDGE('',*,*,#92,.T.);
#311=ORIENTED_EDGE('',*,*,#98,.T.);
#312=ORIENTED_EDGE('',*,*,#90,.T.);
#313=ORIENTED_EDGE('',*,*,#52,.F.);
#314=CARTESIAN_POINT('',(0.0,0.0,0.0));
#315=DIRECTION('',(-0.0,-0.0,-1.0));
#316=DIRECTION('',(1.0,0.0,0.0));
#317=CARTESIAN_POINT('',(0.0,0.0,0.0));
#318=DIRECTION('',(0.0,0.0,1.0));
#319=DIRECTION('',(1.0,0.0,0.0));
#320=CARTESIAN_POINT('',(0.0,0.0,4.0));
#321=DIRECTION('',(0.0,0.0,-1.0));
#322=DIRECTION('',(1.0,0.0,0.0));
#323=CARTESIAN_POINT('',(0.0,0.0,0.0));
#324=DIRECTION('',(0.0,0.0,1.0));
#325=DIRECTION('',(1.0,0.0,0.0));
#326=SURFACE_STYLE_FILL_AREA(#343);
#327=ORIENTED_EDGE('',*,*,#54,.F.);
#328=ORIENTED_EDGE('',*,*,#100,.T.);
#329=ORIENTED_EDGE('',*,*,#74,.T.);
#330=ORIENTED_EDGE('',*,*,#56,.F.);
#331=CARTESIAN_POINT('',(0.0,0.0,0.0));
#332=DIRECTION('',(-0.0,-0.0,-1.0));
#333=DIRECTION('',(1.0,0.0,0.0));
#334=DIRECTION('',(0.0,0.0,1.0));
#335=CARTESIAN_POINT('',(0.0,0.0,0.0));
#336=DIRECTION('',(0.0,0.0,-1.0));
#337=DIRECTION('',(1.0,0.0,0.0));
#338=FILL_AREA_STYLE('',(#344));
#339=FILL_AREA_STYLE('',(#345));
#340=FILL_AREA_STYLE('',(#346));
#341=FILL_AREA_STYLE('',(#347));
#342=FILL_AREA_STYLE('',(#348));
#343=FILL_AREA_STYLE('',(#349));
#344=FILL_AREA_STYLE_COLOUR('',#350);
#345=FILL_AREA_STYLE_COLOUR('',#351);
#346=FILL_AREA_STYLE_COLOUR('',#352);
#347=FILL_AREA_STYLE_COLOUR('',#353);
#348=FILL_AREA_STYLE_COLOUR('',#354);
#349=FILL_AREA_STYLE_COLOUR('',#355);
#350=COLOUR_RGB('',0.505882382392883,0.505882382392883,0.584313750267029);
#351=COLOUR_RGB('',0.505882382392883,0.505882382392883,0.584313750267029);
#352=COLOUR_RGB('',0.505882382392883,0.505882382392883,0.584313750267029);
#353=COLOUR_RGB('',0.505882382392883,0.505882382392883,0.584313750267029);
#354=COLOUR_RGB('',0.505882382392883,0.505882382392883,0.584313750267029);
#355=COLOUR_RGB('',0.505882382392883,0.505882382392883,0.584313750267029);
ENDSEC;
END-ISO-10303-21;
