ISO-10303-21;
HEADER;
FILE_DESCRIPTION(('STEP AP214'),'1');
FILE_NAME(' ','  ',('TraceParts'),('TraceParts S.A.'),'XStep 1.0',' ',' ');
FILE_SCHEMA(('automotive_design'));
ENDSEC;
DATA;
#1=MECHANICAL_DESIGN_GEOMETRIC_PRESENTATION_REPRESENTATION(' ',(#10,#11,#12,#13,#14,#15,#16,#17,#18,#19,#20,#21,#22,#23,#24,#25,#26,#27,#28,#29,#30,#31,#32,#33,#34,#35),#6);
#2=PRODUCT_DEFINITION_CONTEXT('',#36,'design');
#3=APPLICATION_PROTOCOL_DEFINITION('INTERNATIONAL STANDARD','automotive_design',1994,#36);
#4=PRODUCT_CATEGORY_RELATIONSHIP('NONE','NONE',#37,#38);
#5=SHAPE_DEFINITION_REPRESENTATION(#39,#40);
#6= (GEOMETRIC_REPRESENTATION_CONTEXT(3)GLOBAL_UNCERTAINTY_ASSIGNED_CONTEXT((#43))GLOBAL_UNIT_ASSIGNED_CONTEXT((#45,#46,#47))REPRESENTATION_CONTEXT('NONE','WORKSPACE'));
#10=STYLED_ITEM('',(#49),#50);
#11=STYLED_ITEM('',(#51),#52);
#12=STYLED_ITEM('',(#53),#54);
#13=STYLED_ITEM('',(#55),#56);
#14=STYLED_ITEM('',(#57),#58);
#15=STYLED_ITEM('',(#59),#60);
#16=STYLED_ITEM('',(#61),#62);
#17=STYLED_ITEM('',(#63),#64);
#18=STYLED_ITEM('',(#65),#66);
#19=STYLED_ITEM('',(#67),#68);
#20=STYLED_ITEM('',(#69),#70);
#21=STYLED_ITEM('',(#71),#72);
#22=STYLED_ITEM('',(#73),#74);
#23=STYLED_ITEM('',(#75),#76);
#24=STYLED_ITEM('',(#77),#78);
#25=STYLED_ITEM('',(#79),#80);
#26=STYLED_ITEM('',(#81),#82);
#27=STYLED_ITEM('',(#83),#84);
#28=STYLED_ITEM('',(#85),#86);
#29=STYLED_ITEM('',(#87),#88);
#30=STYLED_ITEM('',(#89),#90);
#31=STYLED_ITEM('',(#91),#92);
#32=STYLED_ITEM('',(#93),#94);
#33=STYLED_ITEM('',(#95),#96);
#34=STYLED_ITEM('',(#97),#98);
#35=STYLED_ITEM('',(#99),#100);
#36=APPLICATION_CONTEXT(' ');
#37=PRODUCT_CATEGORY('part','NONE');
#38=PRODUCT_RELATED_PRODUCT_CATEGORY('detail',' ',(#101));
#39=PRODUCT_DEFINITION_SHAPE('NONE','NONE',#102);
#40=ADVANCED_BREP_SHAPE_REPRESENTATION('1',(#103,#104),#6);
#43=UNCERTAINTY_MEASURE_WITH_UNIT(LENGTH_MEASURE(1.0E-006),#45,'','');
#45= (CONVERSION_BASED_UNIT('MILLIMETRE',#107)LENGTH_UNIT()NAMED_UNIT(#110));
#46= (NAMED_UNIT(#112)PLANE_ANGLE_UNIT()SI_UNIT($,.RADIAN.));
#47= (NAMED_UNIT(#112)SOLID_ANGLE_UNIT()SI_UNIT($,.STERADIAN.));
#49=PRESENTATION_STYLE_ASSIGNMENT((#118));
#50=VERTEX_POINT('',#119);
#51=PRESENTATION_STYLE_ASSIGNMENT((#120));
#52=ADVANCED_FACE('',(#121),#122,.F.);
#53=PRESENTATION_STYLE_ASSIGNMENT((#123));
#54=EDGE_CURVE('',#88,#74,#124,.T.);
#55=PRESENTATION_STYLE_ASSIGNMENT((#125));
#56=EDGE_CURVE('',#74,#88,#126,.T.);
#57=PRESENTATION_STYLE_ASSIGNMENT((#127));
#58=EDGE_CURVE('',#88,#98,#128,.T.);
#59=PRESENTATION_STYLE_ASSIGNMENT((#129));
#60=VERTEX_POINT('',#130);
#61=PRESENTATION_STYLE_ASSIGNMENT((#131));
#62=EDGE_CURVE('',#90,#60,#132,.T.);
#63=PRESENTATION_STYLE_ASSIGNMENT((#133));
#64=ADVANCED_FACE('',(#134),#135,.T.);
#65=PRESENTATION_STYLE_ASSIGNMENT((#136));
#66=EDGE_CURVE('',#80,#92,#137,.T.);
#67=PRESENTATION_STYLE_ASSIGNMENT((#138));
#68=ADVANCED_FACE('',(#139,#140),#141,.T.);
#69=PRESENTATION_STYLE_ASSIGNMENT((#142));
#70=EDGE_CURVE('',#92,#80,#143,.T.);
#71=PRESENTATION_STYLE_ASSIGNMENT((#144));
#72=EDGE_CURVE('',#60,#90,#145,.T.);
#73=PRESENTATION_STYLE_ASSIGNMENT((#146));
#74=VERTEX_POINT('',#147);
#75=PRESENTATION_STYLE_ASSIGNMENT((#148));
#76=EDGE_CURVE('',#74,#50,#149,.T.);
#77=PRESENTATION_STYLE_ASSIGNMENT((#150));
#78=EDGE_CURVE('',#90,#80,#151,.T.);
#79=PRESENTATION_STYLE_ASSIGNMENT((#152));
#80=VERTEX_POINT('',#153);
#81=PRESENTATION_STYLE_ASSIGNMENT((#154));
#82=ADVANCED_FACE('',(#155),#156,.F.);
#83=PRESENTATION_STYLE_ASSIGNMENT((#157));
#84=EDGE_CURVE('',#60,#92,#158,.T.);
#85=PRESENTATION_STYLE_ASSIGNMENT((#159));
#86=ADVANCED_FACE('',(#160,#161),#162,.F.);
#87=PRESENTATION_STYLE_ASSIGNMENT((#163));
#88=VERTEX_POINT('',#164);
#89=PRESENTATION_STYLE_ASSIGNMENT((#165));
#90=VERTEX_POINT('',#166);
#91=PRESENTATION_STYLE_ASSIGNMENT((#167));
#92=VERTEX_POINT('',#168);
#93=PRESENTATION_STYLE_ASSIGNMENT((#169));
#94=ADVANCED_FACE('',(#170),#171,.T.);
#95=PRESENTATION_STYLE_ASSIGNMENT((#172));
#96=EDGE_CURVE('',#98,#50,#173,.T.);
#97=PRESENTATION_STYLE_ASSIGNMENT((#174));
#98=VERTEX_POINT('',#175);
#99=PRESENTATION_STYLE_ASSIGNMENT((#176));
#100=EDGE_CURVE('',#50,#98,#177,.T.);
#101=PRODUCT('1','1','PART-1-DESC',(#178));
#102=PRODUCT_DEFINITION('NONE','NONE',#179,#2);
#103=MANIFOLD_SOLID_BREP('1',#180);
#104=AXIS2_PLACEMENT_3D('',#181,#182,#183);
#107=LENGTH_MEASURE_WITH_UNIT(LENGTH_MEASURE(1.0),#184);
#110=DIMENSIONAL_EXPONENTS(1.0,0.0,0.0,0.0,0.0,0.0,0.0);
#112=DIMENSIONAL_EXPONENTS(0.0,0.0,0.0,0.0,0.0,0.0,0.0);
#118=POINT_STYLE(' ',#185,POSITIVE_LENGTH_MEASURE(1.0E-006),#186);
#119=CARTESIAN_POINT('',(-4.25,5.2045770037451E-016,3.0));
#120=SURFACE_STYLE_USAGE(.BOTH.,#187);
#121=FACE_OUTER_BOUND('',#188,.T.);
#122=CYLINDRICAL_SURFACE('',#189,4.25);
#123=CURVE_STYLE('',#190,POSITIVE_LENGTH_MEASURE(1.0E-006),#191);
#124=CIRCLE('',#192,4.25);
#125=CURVE_STYLE('',#193,POSITIVE_LENGTH_MEASURE(1.0E-006),#194);
#126=CIRCLE('',#195,4.25);
#127=CURVE_STYLE('',#196,POSITIVE_LENGTH_MEASURE(1.0E-006),#197);
#128=LINE('',#198,#199);
#129=POINT_STYLE(' ',#200,POSITIVE_LENGTH_MEASURE(1.0E-006),#201);
#130=CARTESIAN_POINT('',(19.75,0.0,0.0));
#131=CURVE_STYLE('',#202,POSITIVE_LENGTH_MEASURE(1.0E-006),#203);
#132=CIRCLE('',#204,19.75);
#133=SURFACE_STYLE_USAGE(.BOTH.,#205);
#134=FACE_OUTER_BOUND('',#206,.T.);
#135=CYLINDRICAL_SURFACE('',#207,19.75);
#136=CURVE_STYLE('',#208,POSITIVE_LENGTH_MEASURE(1.0E-006),#209);
#137=CIRCLE('',#210,19.75);
#138=SURFACE_STYLE_USAGE(.BOTH.,#211);
#139=FACE_OUTER_BOUND('',#212,.T.);
#140=FACE_BOUND('',#213,.T.);
#141=PLANE('',#214);
#142=CURVE_STYLE('',#215,POSITIVE_LENGTH_MEASURE(1.0E-006),#216);
#143=CIRCLE('',#217,19.75);
#144=CURVE_STYLE('',#218,POSITIVE_LENGTH_MEASURE(1.0E-006),#219);
#145=CIRCLE('',#220,19.75);
#146=POINT_STYLE(' ',#221,POSITIVE_LENGTH_MEASURE(1.0E-006),#222);
#147=CARTESIAN_POINT('',(-4.25,5.2045770037451E-016,0.0));
#148=CURVE_STYLE('',#223,POSITIVE_LENGTH_MEASURE(1.0E-006),#224);
#149=LINE('',#225,#226);
#150=CURVE_STYLE('',#227,POSITIVE_LENGTH_MEASURE(1.0E-006),#228);
#151=LINE('',#229,#230);
#152=POINT_STYLE(' ',#231,POSITIVE_LENGTH_MEASURE(1.0E-006),#232);
#153=CARTESIAN_POINT('',(-19.75,2.4185975487992E-015,3.0));
#154=SURFACE_STYLE_USAGE(.BOTH.,#233);
#155=FACE_OUTER_BOUND('',#234,.T.);
#156=CYLINDRICAL_SURFACE('',#235,4.25);
#157=CURVE_STYLE('',#236,POSITIVE_LENGTH_MEASURE(1.0E-006),#237);
#158=LINE('',#238,#239);
#159=SURFACE_STYLE_USAGE(.BOTH.,#240);
#160=FACE_OUTER_BOUND('',#241,.T.);
#161=FACE_BOUND('',#242,.T.);
#162=PLANE('',#243);
#163=POINT_STYLE(' ',#244,POSITIVE_LENGTH_MEASURE(1.0E-006),#245);
#164=CARTESIAN_POINT('',(4.25,0.0,0.0));
#165=POINT_STYLE(' ',#246,POSITIVE_LENGTH_MEASURE(1.0E-006),#247);
#166=CARTESIAN_POINT('',(-19.75,2.4185975487992E-015,0.0));
#167=POINT_STYLE(' ',#248,POSITIVE_LENGTH_MEASURE(1.0E-006),#249);
#168=CARTESIAN_POINT('',(19.75,0.0,3.0));
#169=SURFACE_STYLE_USAGE(.BOTH.,#250);
#170=FACE_OUTER_BOUND('',#251,.T.);
#171=CYLINDRICAL_SURFACE('',#252,19.75);
#172=CURVE_STYLE('',#253,POSITIVE_LENGTH_MEASURE(1.0E-006),#254);
#173=CIRCLE('',#255,4.25);
#174=POINT_STYLE(' ',#256,POSITIVE_LENGTH_MEASURE(1.0E-006),#257);
#175=CARTESIAN_POINT('',(4.25,0.0,3.0));
#176=CURVE_STYLE('',#258,POSITIVE_LENGTH_MEASURE(1.0E-006),#259);
#177=CIRCLE('',#260,4.25);
#178=PRODUCT_CONTEXT('',#36,'mechanical');
#179=PRODUCT_DEFINITION_FORMATION_WITH_SPECIFIED_SOURCE(' ','NONE',#101,.NOT_KNOWN.);
#180=CLOSED_SHELL('',(#82,#52,#68,#86,#94,#64));
#181=CARTESIAN_POINT('',(0.0,0.0,0.0));
#182=DIRECTION('',(0.0,0.0,1.0));
#183=DIRECTION('',(1.0,0.0,0.0));
#184= (NAMED_UNIT(#110)LENGTH_UNIT()SI_UNIT(.MILLI.,.METRE.));
#185=PRE_DEFINED_MARKER('');
#186=COLOUR_RGB('',0.505882382392883,0.505882382392883,0.584313750267029);
#187=SURFACE_SIDE_STYLE('',(#262));
#188=EDGE_LOOP('',(#263,#264,#265,#266));
#189=AXIS2_PLACEMENT_3D('',#267,#268,#269);
#190=DRAUGHTING_PRE_DEFINED_CURVE_FONT('continuous');
#191=COLOUR_RGB('',0.505882382392883,0.505882382392883,0.584313750267029);
#192=AXIS2_PLACEMENT_3D('',#270,#271,#272);
#193=DRAUGHTING_PRE_DEFINED_CURVE_FONT('continuous');
#194=COLOUR_RGB('',0.505882382392883,0.505882382392883,0.584313750267029);
#195=AXIS2_PLACEMENT_3D('',#273,#274,#275);
#196=DRAUGHTING_PRE_DEFINED_CURVE_FONT('continuous');
#197=COLOUR_RGB('',0.505882382392883,0.505882382392883,0.584313750267029);
#198=CARTESIAN_POINT('',(4.25,0.0,0.0));
#199=VECTOR('',#276,1000.0);
#200=PRE_DEFINED_MARKER('');
#201=COLOUR_RGB('',0.505882382392883,0.505882382392883,0.584313750267029);
#202=DRAUGHTING_PRE_DEFINED_CURVE_FONT('continuous');
#203=COLOUR_RGB('',0.505882382392883,0.505882382392883,0.584313750267029);
#204=AXIS2_PLACEMENT_3D('',#277,#278,#279);
#205=SURFACE_SIDE_STYLE('',(#280));
#206=EDGE_LOOP('',(#281,#282,#283,#284));
#207=AXIS2_PLACEMENT_3D('',#285,#286,#287);
#208=DRAUGHTING_PRE_DEFINED_CURVE_FONT('continuous');
#209=COLOUR_RGB('',0.505882382392883,0.505882382392883,0.584313750267029);
#210=AXIS2_PLACEMENT_3D('',#288,#289,#290);
#211=SURFACE_SIDE_STYLE('',(#291));
#212=EDGE_LOOP('',(#292,#293));
#213=EDGE_LOOP('',(#294,#295));
#214=AXIS2_PLACEMENT_3D('',#296,#297,#298);
#215=DRAUGHTING_PRE_DEFINED_CURVE_FONT('continuous');
#216=COLOUR_RGB('',0.505882382392883,0.505882382392883,0.584313750267029);
#217=AXIS2_PLACEMENT_3D('',#299,#300,#301);
#218=DRAUGHTING_PRE_DEFINED_CURVE_FONT('continuous');
#219=COLOUR_RGB('',0.505882382392883,0.505882382392883,0.584313750267029);
#220=AXIS2_PLACEMENT_3D('',#302,#303,#304);
#221=PRE_DEFINED_MARKER('');
#222=COLOUR_RGB('',0.505882382392883,0.505882382392883,0.584313750267029);
#223=DRAUGHTING_PRE_DEFINED_CURVE_FONT('continuous');
#224=COLOUR_RGB('',0.505882382392883,0.505882382392883,0.584313750267029);
#225=CARTESIAN_POINT('',(-4.25,5.2045770037451E-016,0.0));
#226=VECTOR('',#305,1000.0);
#227=DRAUGHTING_PRE_DEFINED_CURVE_FONT('continuous');
#228=COLOUR_RGB('',0.505882382392883,0.505882382392883,0.584313750267029);
#229=CARTESIAN_POINT('',(-19.75,2.4185975487992E-015,0.0));
#230=VECTOR('',#306,1000.0);
#231=PRE_DEFINED_MARKER('');
#232=COLOUR_RGB('',0.505882382392883,0.505882382392883,0.584313750267029);
#233=SURFACE_SIDE_STYLE('',(#307));
#234=EDGE_LOOP('',(#308,#309,#310,#311));
#235=AXIS2_PLACEMENT_3D('',#312,#313,#314);
#236=DRAUGHTING_PRE_DEFINED_CURVE_FONT('continuous');
#237=COLOUR_RGB('',0.505882382392883,0.505882382392883,0.584313750267029);
#238=CARTESIAN_POINT('',(19.75,0.0,0.0));
#239=VECTOR('',#315,1000.0);
#240=SURFACE_SIDE_STYLE('',(#316));
#241=EDGE_LOOP('',(#317,#318));
#242=EDGE_LOOP('',(#319,#320));
#243=AXIS2_PLACEMENT_3D('',#321,#322,#323);
#244=PRE_DEFINED_MARKER('');
#245=COLOUR_RGB('',0.505882382392883,0.505882382392883,0.584313750267029);
#246=PRE_DEFINED_MARKER('');
#247=COLOUR_RGB('',0.505882382392883,0.505882382392883,0.584313750267029);
#248=PRE_DEFINED_MARKER('');
#249=COLOUR_RGB('',0.505882382392883,0.505882382392883,0.584313750267029);
#250=SURFACE_SIDE_STYLE('',(#324));
#251=EDGE_LOOP('',(#325,#326,#327,#328));
#252=AXIS2_PLACEMENT_3D('',#329,#330,#331);
#253=DRAUGHTING_PRE_DEFINED_CURVE_FONT('continuous');
#254=COLOUR_RGB('',0.505882382392883,0.505882382392883,0.584313750267029);
#255=AXIS2_PLACEMENT_3D('',#332,#333,#334);
#256=PRE_DEFINED_MARKER('');
#257=COLOUR_RGB('',0.505882382392883,0.505882382392883,0.584313750267029);
#258=DRAUGHTING_PRE_DEFINED_CURVE_FONT('continuous');
#259=COLOUR_RGB('',0.505882382392883,0.505882382392883,0.584313750267029);
#260=AXIS2_PLACEMENT_3D('',#335,#336,#337);
#262=SURFACE_STYLE_FILL_AREA(#338);
#263=ORIENTED_EDGE('',*,*,#54,.T.);
#264=ORIENTED_EDGE('',*,*,#76,.T.);
#265=ORIENTED_EDGE('',*,*,#96,.F.);
#266=ORIENTED_EDGE('',*,*,#58,.F.);
#267=CARTESIAN_POINT('',(0.0,0.0,0.0));
#268=DIRECTION('',(-0.0,-0.0,-1.0));
#269=DIRECTION('',(1.0,0.0,0.0));
#270=CARTESIAN_POINT('',(0.0,0.0,0.0));
#271=DIRECTION('',(0.0,0.0,-1.0));
#272=DIRECTION('',(1.0,0.0,0.0));
#273=CARTESIAN_POINT('',(0.0,0.0,0.0));
#274=DIRECTION('',(0.0,0.0,-1.0));
#275=DIRECTION('',(1.0,0.0,0.0));
#276=DIRECTION('',(0.0,0.0,1.0));
#277=CARTESIAN_POINT('',(0.0,0.0,0.0));
#278=DIRECTION('',(0.0,0.0,1.0));
#279=DIRECTION('',(1.0,0.0,0.0));
#280=SURFACE_STYLE_FILL_AREA(#339);
#281=ORIENTED_EDGE('',*,*,#78,.F.);
#282=ORIENTED_EDGE('',*,*,#62,.T.);
#283=ORIENTED_EDGE('',*,*,#84,.T.);
#284=ORIENTED_EDGE('',*,*,#70,.T.);
#285=CARTESIAN_POINT('',(0.0,0.0,0.0));
#286=DIRECTION('',(-0.0,-0.0,-1.0));
#287=DIRECTION('',(1.0,0.0,0.0));
#288=CARTESIAN_POINT('',(0.0,0.0,3.0));
#289=DIRECTION('',(0.0,0.0,-1.0));
#290=DIRECTION('',(1.0,0.0,0.0));
#291=SURFACE_STYLE_FILL_AREA(#340);
#292=ORIENTED_EDGE('',*,*,#70,.F.);
#293=ORIENTED_EDGE('',*,*,#66,.F.);
#294=ORIENTED_EDGE('',*,*,#96,.T.);
#295=ORIENTED_EDGE('',*,*,#100,.T.);
#296=CARTESIAN_POINT('',(0.0,0.0,3.0));
#297=DIRECTION('',(0.0,0.0,1.0));
#298=DIRECTION('',(1.0,0.0,0.0));
#299=CARTESIAN_POINT('',(0.0,0.0,3.0));
#300=DIRECTION('',(0.0,0.0,-1.0));
#301=DIRECTION('',(1.0,0.0,0.0));
#302=CARTESIAN_POINT('',(0.0,0.0,0.0));
#303=DIRECTION('',(0.0,0.0,1.0));
#304=DIRECTION('',(1.0,0.0,0.0));
#305=DIRECTION('',(0.0,0.0,1.0));
#306=DIRECTION('',(0.0,0.0,1.0));
#307=SURFACE_STYLE_FILL_AREA(#341);
#308=ORIENTED_EDGE('',*,*,#76,.F.);
#309=ORIENTED_EDGE('',*,*,#56,.T.);
#310=ORIENTED_EDGE('',*,*,#58,.T.);
#311=ORIENTED_EDGE('',*,*,#100,.F.);
#312=CARTESIAN_POINT('',(0.0,0.0,0.0));
#313=DIRECTION('',(-0.0,-0.0,-1.0));
#314=DIRECTION('',(1.0,0.0,0.0));
#315=DIRECTION('',(0.0,0.0,1.0));
#316=SURFACE_STYLE_FILL_AREA(#342);
#317=ORIENTED_EDGE('',*,*,#72,.F.);
#318=ORIENTED_EDGE('',*,*,#62,.F.);
#319=ORIENTED_EDGE('',*,*,#54,.F.);
#320=ORIENTED_EDGE('',*,*,#56,.F.);
#321=CARTESIAN_POINT('',(0.0,0.0,0.0));
#322=DIRECTION('',(0.0,0.0,1.0));
#323=DIRECTION('',(1.0,0.0,0.0));
#324=SURFACE_STYLE_FILL_AREA(#343);
#325=ORIENTED_EDGE('',*,*,#72,.T.);
#326=ORIENTED_EDGE('',*,*,#78,.T.);
#327=ORIENTED_EDGE('',*,*,#66,.T.);
#328=ORIENTED_EDGE('',*,*,#84,.F.);
#329=CARTESIAN_POINT('',(0.0,0.0,0.0));
#330=DIRECTION('',(-0.0,-0.0,-1.0));
#331=DIRECTION('',(1.0,0.0,0.0));
#332=CARTESIAN_POINT('',(0.0,0.0,3.0));
#333=DIRECTION('',(0.0,0.0,-1.0));
#334=DIRECTION('',(1.0,0.0,0.0));
#335=CARTESIAN_POINT('',(0.0,0.0,3.0));
#336=DIRECTION('',(0.0,0.0,-1.0));
#337=DIRECTION('',(1.0,0.0,0.0));
#338=FILL_AREA_STYLE('',(#344));
#339=FILL_AREA_STYLE('',(#345));
#340=FILL_AREA_STYLE('',(#346));
#341=FILL_AREA_STYLE('',(#347));
#342=FILL_AREA_STYLE('',(#348));
#343=FILL_AREA_STYLE('',(#349));
#344=FILL_AREA_STYLE_COLOUR('',#350);
#345=FILL_AREA_STYLE_COLOUR('',#351);
#346=FILL_AREA_STYLE_COLOUR('',#352);
#347=FILL_AREA_STYLE_COLOUR('',#353);
#348=FILL_AREA_STYLE_COLOUR('',#354);
#349=FILL_AREA_STYLE_COLOUR('',#355);
#350=COLOUR_RGB('',0.505882382392883,0.505882382392883,0.584313750267029);
#351=COLOUR_RGB('',0.505882382392883,0.505882382392883,0.584313750267029);
#352=COLOUR_RGB('',0.505882382392883,0.505882382392883,0.584313750267029);
#353=COLOUR_RGB('',0.505882382392883,0.505882382392883,0.584313750267029);
#354=COLOUR_RGB('',0.505882382392883,0.505882382392883,0.584313750267029);
#355=COLOUR_RGB('',0.505882382392883,0.505882382392883,0.584313750267029);
ENDSEC;
END-ISO-10303-21;
